Osbourne Ozzy - Paranoid Live At The Budokan Chords & Tabs

 

Paranoid Live At The Budokan Chords & Tabs

Osbourne Ozzy Chords & Tabs

Version: 1 Type: Tab 2 ratings
1 star 2 stars 3 stars 4 stars 5 stars
comments

Paranoid Live At The Budokan Tab

   
This is Zakk Wylde's version of "Paranoid" from Live At The Budokan...
Remember, Zakk Wylde uses full chords in his version of this song...

RIFF A:
E:--------------------------------
B:--------------------------------
G:---------------7h9-----7h9------
D:---7h9-9-9-7h9-----7h9----------
A:---7---7-7----------------------
E:--------------------------------

RIFF B:
       A  -  A  -  A  -  A  -  G  -  G - D -G -A
E:-----------------------------0-----0---2--0-----
B:-----2-----2-----2-----2-----3-----3---3--3--2--
G:-----2-----2-----2-----2-----0-----0---2--0--2--
D:-x-x-2-x-x-2-x-x-2-x-x-2-x-x-0-x-x-0---0--0--2--
A:-----------------------------2-----2------2-----
E:-----------------------------3-----3------3-----
[ Tab from: http://www.guitartabs.cc/tabs/o/osbourne_ozzy/paranoid_live_at_the_budokan_tab.html ]
RIFF C:
    A  C  G      A     A     A     -Pinched Harmonic
E:--------0---------------------------------
B:--2--1--3------2-----2-----2--------------
G:--2--0--0------2-----2-----2--------------
D:--2--2--0--x-x-2-x-x-2-x-x-2-x-x----------
A:-----3--2---------------------------------
E:--------3-------------------------3^^-----

RIFF D:
    A            G           A            G      -Pinched Harmonic
E:---------------0------------------------0---------------
B:--2------------3-----------2------------3---------------
G:--2------------0-----------2------------0---------------
D:--2------------0-----------2------------0---------------
A:---------------2------------------------2---------3^^---
E:---------------3------------------------3---------------
(This is the "Can You Help Me? ...." Part)

ORDER:
RIFF A........ 2x's
RIFF B........ 2x's
RIFF C........ 2x's
RIFF B........ 2x's
RIFF D........ 1x
RIFF B........ 4x's
RIFF B(Solo).. 4-6x's (depends who's playing the solo... Zakk uses 4x's)
RIFF B........ 4x's
RIFF C........ 2x's
RIFF B........ 4x's

That's all for now... Good Luck~                -A B
Comments