Osbourne Ozzy - Nib Chords & Tabs

 

Nib Chords & Tabs

Osbourne Ozzy Chords & Tabs

Version: 1 Type: Bass Tab 0 ratings
1 star 2 stars 3 stars 4 stars 5 stars
comments

Nib Bass Tab

   Ozzy and Primus-NIB  (most of it)
G---------------------------------------------3--2--0----
D-2---2---0---2---5--4---2--2---0---2-----------------
A----------------------------------------------------------
E----------------------------------------------------------
[ Tab from: http://www.guitartabs.cc/tabs/o/osbourne_ozzy/nib_btab.html ]
G------------------------------------------------------------0--2-----
D--2---2---0--2---5--4---2---2---0---2-----------0--2------------
A----------------------------------------------0--2-------------------
E-----------------------------------------------------------------------
					   \____Faster____/
It’s fairly easy except that faster part can be a little tricky, deal 
with it
Comments