Osbourne Ozzy - Nativity In Black Chords & Tabs

 

Nativity In Black Chords & Tabs

Osbourne Ozzy Chords & Tabs

Version: 1 Type: Tab 0 ratings
1 star 2 stars 3 stars 4 stars 5 stars
comments

Nativity In Black Tab

Song- Nativity In Black
Band- Ozzy Osbourne w/ Primus

Main riff
E------------------------------------------------------------------
B-------------------------12-12------------------------------------
G-------------------------12-12------------------------------------
D-9-9-7-9--12-11--9-9-7-9-------9-9-7-5--12-11--9-9-7-7--10h12p10h12
A-7-7-5-7--10-9---7-7-5-7-------7-7-5-7--10-9---7-7-5-7-------------
E-------------------------------------------------------------------
[ Tab from: http://www.guitartabs.cc/tabs/o/osbourne_ozzy/nativity_in_black_tab.html ]
riff before solo
E------------------------
B-----------------------------12b-12b-12b
G-----------------------------12b-12b-12b
D------------------------x3
A-------10-12-12p10------
E-10h12-------------12-12

when song slows
E----------------------------------------------------------
B----------------------------------------------------------
G-----------------------x2 (then)--------------------------
D-9*---9-7*---7-5*---5-4*---------4-5*---5-4*---4-5*---5-4*
A-7----7-5----5-3----3-2----------2-3----3-2----2-3----3-2
E----------------------------------------------------------

thats all the riffs i'll do the solo when i have time.
Comments