Osbourne Ozzy - Mr Crowley Chords & Tabs

 

Mr Crowley Chords & Tabs

Osbourne Ozzy Chords & Tabs

Version: 3 Type: Tab 2 ratings
1 star 2 stars 3 stars 4 stars 5 stars
comments

Mr Crowley Tab

   
  ((intro) sounds like they use an organ pedal or somthin though
  D        G              A     B           A      D
|e----------------------------------------------------------
|B-------------------------------------------------3-5---5--
|G--------0-2------2-0----0-2--4-5------5-4-2--4-5-----4----
|D-0--2-3------2-------3------------5-----------------------
|A---------------0--------------------3---------------------
|E----------------------------------------------------------
 A  A#  F  G  F  E  F
|---------------------|
|---------------------|
|---------------------|    repeat one time
|-7--8--3--5--3--2--3-|
|---------------------|
|-5--6--1--3--1--0--1-|

 Dm     A F  Dm          A#  A#           A#  A#  C
|---------------------------------------------------------
|-6----------6--------------------------------------------
|-7----------7--------------------------------------------
|-7----------7---p.s-\----3---3------------3---3----------
|-5------0---5---p.s-\----1---1--x-1-3-1-0-1---1---3------
|----------1-----p.s-\------------------------------------
                  ^
                (pick slide)
 Dm     A F  Dm          A#  A#           A#  A#  C
|---------------------------------------------------------
|-6----------6--------------------------------------------
|-7----------7--------------------------------------------
|-7----------7-----------3---3------------3---3-----------
|-5------0---5--5/12\3---1---1--x-1-3-1-0-1---1---1-------
|----------1----------------------------------------------

  C   C    C    D          D    D     G   
|----------------------------------|------------------------
|-------------------5--6-----------|-------5-6-5-6/8--6-----
|-------------------5--5-----------|-------5-7-5-7/9--7-----
|-5---5----5--------5--7---7----7--|---5h7------------------
|-3---3----3----5-7--------5----5--|------------------------
|---------------P.M----------------|----x-------------------

  C   C     C        C   C   A#  A#      A#   A
|----------------------------------------------------------
|----------------------------------------------------------
|-5---5-----5--------5---5---3---3-------3-----------------
|-5---5-----5--------5---5---3---3-------3---(2)-----------
|-3---3-----3----x-x-3---3---1---1-------1----0------------
|----------------------------------------------------------

FILL 1
|-----------------------------------
|-3h4p3---3-------------------------
|-------5---5p3-5-3\2---------------
|---------------------5-3-5p3-2-----
|-------------------------------5---
|-----------------------------------


Solo:
 Dm
|------10----------10----------10----------10-----10-------
|----10--13-10---10--13-10---10--13-10---10--13-10---------
|-12^---------12^---------12^---------12^------------------
|----------------------------------------------------------
|----------------------------------------------------------
|----------------------------------------------------------

  A#
|-13-10---10--------------------------------------------------
|------13---13-10-13-10--10-----------------------------------
|----------------------12--12-10-12-10--10--------------------
|-------------------------------------12--12-10-12-10--10--10-
|----------------------------------------------------12--12---
|-------------------------------------------------------------

 C
|-----------------------------------13-13-16-15-13-18-181615-20-201817-
|--------------------10--10-10-13-15-----------------------------------
|---------10-10-10-12--12----------------------------------------------
|-12-10-12-------------------------------------------------------------
|----------------------------------------------------------------------
|----------------------------------------------------------------------

 Dm
|-20--20^~~~~~~~~~~----20^--^-^---^~~~~~~---20--17--20-----
|----------------------------------------------------------
|----------------------------------------------------------
|----------------------------------------------------------
|----------------------------------------------------------
|----------------------------------------------------------

  A#
|-171817-------------------181715-17-15------------------------
|-------201720-171817-20---------------18p17-15-17-15\13-15p13-
|--------------------------------------------------------------
|--------------------------------------------------------------
|--------------------------------------------------------------
|--------------------------------------------------------------

 Em7b5                                    A     Asus4
|-----------------------------------------15^---15-15-15-15-
|----13----------------------------X-------------------------
|-14----15-12----12----------------X-------------------------
|-------------15----14p12-14\------X-------------------
|-----------------------------------------------------------
|-----------------------------------------------------------
                    
                   A
-13-12h13p12----12------------------------
-------------15----15^-~~~~~~~~~~~~-px----
------------------------------------------
------------------------------------------
------------------------------------------
------------------------------------------

  Dm
|-13p10--10--10-13p10-10-10--10-13p10--10------13p10--10--10-
|------13--13--------------13--------13--13-10------13--13---
|------------------------------------------------------------
|------------------------------------------------------------
|------------------------------------------------------------
|------------------------------------------------------------

  A#
|-13p10--10--10-13p10--10-----13p10--10-----13p10--10------
|------13--13--------13--13-10-----13--13-10-----13--13-10-
|----------------------------------------------------------
|----------------------------------------------------------
|----------------------------------------------------------
|----------------------------------------------------------

  C                                                  Dm
|-----------------------------------------5-h6p5---5-------
|-13-8h10\8-5-6-5\3-4-1-/-5-6p5---5h6p5h6--------8---8--^--
|-------------------------------7--------------------------
|----------------------------------------------------------
|----------------------------------------------------------
|----------------------------------------------------------

  Bb                        E5  Em7b5
|--------------------------------------------------------------
|-6-------------6p5--------------------------------------------
|---7---7~~-7p5-----7p5----------------------------------------
|-----------------------7p6p5---5h6p5---5-------5p3-------3----
|-----------------------------8-------8---8-5\3-----5p3-5---5--
|--------------------------------------------------------------
[ Tab from: http://www.guitartabs.cc/tabs/o/osbourne_ozzy/mr_crowley_tab_ver_3.html ]
 A        A       Asus4            A
|----------------------------------------------------------
|----------------------------------------------------------
|----------------------------------------------------------
|----------------------------------------------------------
|-7~~~----7~~~----7~~~-----7-\-4---0\---------------------
|------------------------------------\dive-boom-(slack)-(end solo)

 fill 2:
|--------------------------------------------
|-----------------------------------8-10-11--
|----------------------------7h9h10----------
|-----------7---------7-8-10-----------------
|----7-8-10---10-8-10------------------------
|-10-----------------------------------------
  P.M.............

  melodic interlude (2 guitars):

 Dm                 A#        C                    Dm
|----------5----------------|-------5h6-8-6-5----------6-5-----
|----5h6h8---8-6-5------6-5-|-----8-----------8-----6----------
|-------------------7-------|----------------------------------
|---------------------------|----------------------------------
|---------------------------|----------------------------------
|---------------------------|----------------------------------

 A#                Em7b5      A
|-----------------------5---|-----------5------------------
|-------5h6-8-6-5---------8-|--5--6--8-----8--6--5---------
|-----7-----------7---------|------------------------------repeat 1x
|-------------------8-------|------------------------------
|---------------------------|------------------------------
|---------------------------|------------------------------

  Dm                      Gm7
|-17p13-------------------18p13----------------------------
|-------15-(repeat 8 X)--------15--(repeat 8x)-------------
|----------------------------------------------------------
|----------------------------------------------------------
|----------------------------------------------------------
|----------------------------------------------------------

  C                      F
|-15p12------------------17p13-----------------------------
|-------13-(repeat 8x)---------13-(repeat 8x)--------------
|----------------------------------------------------------
|----------------------------------------------------------
|----------------------------------------------------------
|----------------------------------------------------------

  A#
|----------------------------------------------------------
|-15h16p15h16-16/18\16/18-18---16---15---16----------------
|-15h17p15h17-17/19\17/19-19---17---15---17----------------
|----------------------------------------------------------
|----------------------------------------------------------
|----------------------------------------------------------

  Em7b5                Asus4                  A
|-15---12---------12----9----10----12----13---12-----------
|-/-----/----11----/----/-----/-----/-----/----------------
|-/-----/-----/----/----/-----/-----/-----/----------------
|-/-----/-----/----/----/-----/-----/-----/----------------
|-------------/--------------------------------------------
|----------------------------------------------------------

                               Dm
|-10h12p10h12p10h12-12~~~~~~~---910910910-----------------------------
|----------------------------------------101110111011-----------------
|----------------------------------------------------910910910-676767-
|---------------------------------------------------------------------
|---------------------------------------------------------------------
|---------------------------------------------------------------------

 Gm                              C
|---------9h10-12-10-12^~~~~~-----5h6p5--5-----------------------
|-----9h10-----------------------------8---8-6p5-6p5-------------
|-9h10-----------------------------------------------7-5---------
|--------------------------------------------------------8p7-5---
|--------------------------------------------------------------8-
|----------------------------------------------------------------

 F                       A#
|--------------------------------------------56865---------
|-----------------------------------------568------8-------
|----------------------------------235-357-----------------
|-5---------5-7p5---------------235------------------------
|---8p7p5-8-------8-\--------135---------------------------
|-------------------------135------------------------------

 Gm                             Asus4
|-5-------------5------------------------------------------
|---8-6p5-6p5-8---8-----6--5-----232323/353535/65656/86868/
|----------------------------------------------------------
|----------------------------------------------------------
|----------------------------------------------------------
|----------------------------------------------------------

 A
-----------------------------------------------------------
/10810810/11101110111011/131113111311-15^------------------
-----------------------------------------------------------
-----------------------------------------------------------
-----------------------------------------------------------
-----------------------------------------------------------

 Dm                    Gm               C                               F
|---------------------------------------171817--17-----------17---------20^-
|-17h18----------17-18-17-18----------18------20--201817-1820--20-18-17-----
|-------19~~~~---------------19~~~~~----------------------------------------
|---------------------------------------------------------------------------
|-begin-fade----------------------------------------------------------------
|---------------------------------------------------------------------------

 Bb
|-18--17--2018172018152018-14-19-16\15-131814131613121512\11101411-9--
|---------------------------------------------------------------------
|---------------------------------------------------------------------
|---------------------------------------------------------------------
|---------------------------------------------------------------------
|---------------------------------------------------------------------

 Em7b5
|-13-10\5h6p5---5------------------------------------------
|-------------8---8-6-5---5--------------------------------
|-----------------------7---7-5---5------------------------
|-------------------------------8---8-7-8-7---------5------
|-------------------------------------------7/8-7h8--------
|----------------------------------------------------------

 Asus4        A           Dm                    Gm
|----------------------------------------------------------
|----------------------------------------------------------
|----------------------------------------------------------
|-7--5------------------------------------3----------------
|-------8--7---5--3--------3/5------5-3-5---5-3-5----------
|--------------------5-3-1---------------------------------

                C             F
|----------------------------------------------------------
|-------------------------------------6p5------------------
|---------------------------------5h7----7p5-7~~~~---------
|-6-3-5-3----------------3--5-5/7--------------------------
|---------5-3---5--3--5------------------------------------
|----------------------------------------------------------

  Bb
|-5h6p5---5------------------------
|-------8---8-6-5-6-5--------------
|---------------------7-5-7-5------
|-----------------------------8-7--
|----------------------------------
|----------------------------------
Comments