Osbourne Ozzy - Mama Im Coming Home Chords & Tabs

 

Mama Im Coming Home Chords & Tabs

Osbourne Ozzy Chords & Tabs

Version: 1 Type: Bass Tab 0 ratings
1 star 2 stars 3 stars 4 stars 5 stars
comments

Mama Im Coming Home Bass Tab

   
Song: MAMA I´M COMING HOME
Artist: OZZY OSBOURNE
Album: NO MORE TEARS
--------------------
                                                                                    Transcribed by Emil Ortenmark, kfemil@telia.com

Tuned down 1/2-step

Comments: This is a fretless part. I don´t know who played it,
the CD lists Bob Daisley as the bass player but there´s also
mention of Michael Inez. Anyway, it´s a complete tab since
there really aren´t that many repeating riffs or anything.
The part that keeps coming back is just the open E. I think
that the song is in half-time and that would make each staff
equal to about four bars. If you feel it in "real" time, each
staff is two bars.

Key:
/    = slide up
\    = slide down
b    = bend (whole step)
b^   = bend (1/2 step)
b^^  = bend (1 1/2 steps)
pb   = pre-bend
r    = release-bend
t    = tap with righthand finger
h    = hammer-on
p    = pull-off
~    = Vibrato
*    = Natural Harmonic
#(#) = Trill
x    = Dead notes (no pitch)
P.M. = Palm mute (- -> underneath indicates which notes)
Tp   = Tap w\plectrum



                                                              
Gb|-------------------------------------------------------------|
Db|-------------------------------------------------------------|
Ab|-------------------------------------------------------------|
Eb|--0----------------------------------------------------------|
   < - 3x - >

                                                                  
Gb|-------------------------------------------------------------|
Db|-------------------/14---13-----11----9\---------------------|
Ab|-------------------------------------------------------------|
Eb|--2/-5-------------------------------------------------------|


                                                          
Gb|-------------------------------------------------------------|
Db|-------------------------------------------------------------|
Ab|-------------------------------------------------------------|
Eb|--0----------------------------------------------------------|


                                                           
Gb|-------------------------------------------------------------|
Db|-------------------------------------------------------------|
Ab|-------------------------------------------------------------|
Eb|--2/-5-------------------------------------------------------|


                                                            
Gb|-------------------------------------------------------------|
Db|-------------------------------------------------------------|
Ab|------------------/9--------7\-------------------------------|
Eb|--0----------------------------------------------------------|


                                                    
Gb|-----/6-------------2----------------------------------------|
Db|---------6------------2--------------------------------------|
Ab|--4---------4-0---------0----------7\6/7---6-----------------|
Eb|--------------------------0----------------------------------|


                                                    
Gb|--------6----------------------/11---------------------------|
Db|----------6------------------------9---9\--------------------|
Ab|--4---------4-0-----4-0-1-2----------9-----------------------|
Eb|-------------------------------------------------------------|


                                                          
Gb|-------------------------------------------------------------|
Db|-------------------------------------------------------------|
Ab|-------------------------------------------------------------|
Eb|--0----------------------------------------------------------|


                                                            
Gb|-------------------------------------------------------------|
Db|-------------------------------------------------------------|
Ab|-------------------------------------------------------------|
Eb|--2/-5----------------0--------------------------------------|


                                                    
Gb|-------------------------------------------------------------|
Db|-/14---13-----11----9----7---6-----4\---2--------------------|
Ab|------------------------------------------4-2----------------|
Eb|----------------------------------------------4--------------|


                                                
Gb|-------------------------------------------------------------|
Db|----------------------------------------9-11\----------------|
Ab|--0--------0---------------------7-9/11----------------------|
Eb|---------------------0---------------------------------------|


                                                    
Gb|-------------------------------------------------------------|
Db|--------2-------------------------------4-6-4----------------|
Ab|--4-------4-2-0-----4-6-7---------------------7--------------|
Eb|--------------------------0--------0-------------------------|


                                                     
Gb|-------------------------------------------------------------|
Db|--------2----------------------------------------------------|
Ab|--4-------4-2-0-----4-0-1-2---2-2---2-2----------------------|
Eb|-----------------------------------------2---4---------------|


                                                    
Gb|-------------------------------------------------------------|
Db|-------------------------------------------------------------|
Ab|--0-------0-0--0----4----------7--------7-7-4\2--------------|
Eb|----------------------5-0-----------0-0----------------------|

[ Tab from: http://www.guitartabs.cc/tabs/o/osbourne_ozzy/mama_im_coming_home_btab.html ]
                                                
Gb|-------------------------------------------------------------|
Db|-------------------------------------------------------------|
Ab|--0-------0-0--0----4----------7-----------------------------|
Eb|----------------------5-0-----------2---4--------------------|


                                                
Gb|-------------------------------------------------------------|
Db|-------------------------------------------------------------|
Ab|--0----2--4-2--------0----0--------2-------------------------|
Eb|--------------0--0h2-----------------------------------------|


                                                  
Gb|-------------------------------------------------------------|
Db|-------------------------------------------------------------|
Ab|--3----3---3--5----5---5---------7--x--7---------------------|
Eb|---------3-----------5----0----------------------------------|


                                                          
Gb|-------------------------------------------------------------|
Db|-------------------------------------------------------------|
Ab|--3----3---3--5----5---5--2--4-4-5-5-6-6-7-7-8-8-9\----------|
Eb|---------3-----------5---------------------------------------|


                                                               
Gb|-------------------------------------------------------------|
Db|-------------------------------------------------------------|
Ab|-------------------------------------------------------------|
Eb|--3---5---0-----------3---3---0------------------------------|


                                                         
Gb|-------------------------------------------------------------|
Db|-------------------------------------------------------------|
Ab|---------------------2-2-2-2-2-2-2-2-2-2-2-2-2-2-2-2---------|
Eb|--3---5---0--------------------------------------------------|
                        Crescendo - - - - - - - - - - >

                                                                  
Gb|-------------------------------------------------------------|
Db|------------------------------------/11---11-11-11-9-11-9----|
Ab|--0--0-0-0--0---0-0-0---0--0h2----------------------------11-|
Eb|--------------4-------4--------0-----------------------------|


                                                          
Gb|-------------------------------------------------------------|
Db|------------------2---4-2----------------------9/11----------|
Ab|--0--0--0--0--2h4---4-----4-2--------7----9/11---------------|
Eb|------------------------------0------------------------------|


                                                             
Gb|-------------------------------------------------------------|
Db|-------------------------------------------------------------|
Ab|--0--0-1-2--0-2-4--2--0--0-0-2--2-2-2--2-2-2--2-2-2--2-2-----|
Eb|-------------------------------------------------------------|
 

                                                    
Gb|-------------------------------------------------------------|
Db|-----------------------------------------4-6-4---------------|
Ab|--4----4---4-0-----4-6-7-------7\--------------7-------------|
Eb|--------------------------0---------0------------------------|


                                                       
Gb|-------------------------------------------------------------|
Db|--------2----------------------------------------------------|
Ab|--4-------4-2-0----0--4-0--2--2-2-2--2-2-2\------------------|
Eb|--------------------------------------------2---4------------|


                                                
Gb|-------------------------------------------------------------|
Db|-------------------------------------------------------------|
Ab|--0-------0-0--0----4-----------7----------------------------|
Eb|----------------------5--0-------------2/-4------------------|


                                                 
Gb|-------------------------------------------------------------|
Db|-------------------------------------------------------------|
Ab|--0-------0-0--0----4-----------7----------------------------|
Eb|----------------------5--0-------------0--2-4----------------|


                                               
Gb|-------------------------------------------9*----------------|
Db|----------------------------------------9*-------------------|
Ab|--0----2\----------0------------7----------------------------|
Eb|------------0--0h2-------------------------------------------|


                                                     
Gb|-------------------------------------------------------------|
Db|-------------------------------------------------------------|
Ab|--3------0-3--5---5-5---5--------7--7--------7---------------|
Eb|-------3--------------5-----0----------0-0-------------------|


                                                        
Gb|-------------------------------------------------------------|
Db|-------------------------------------------------------------|
Ab|--3----3---3--5----5---5---7--7/9--9/-11---11/-14------------|
Eb|---------3-----------5---------------------------------------|


                                                                
Gb|-------------------------------------------------------------|
Db|--------------------------/14--14-13--13-11---9--------------|
Ab|--3----3---0-3-5----5---5-------------------------12-11-9\7--|
Eb|---------3------------5--------------------------------------|


                                                 
Gb|-------------------------------------------------------------|
Db|-------------------------------------------------------------|
Ab|--3---3-3---3--5----5---5------------------------------------|
Eb|----------3-----------5-------------------------0------------|
                                           Fade in using vol. knob

Comments