Osbourne Ozzy - I Don`t Know (live) Chords & Tabs

 

I Don`t Know (live) Chords & Tabs

Osbourne Ozzy Chords & Tabs

Version: 1 Type: Tab 0 ratings
1 star 2 stars 3 stars 4 stars 5 stars
comments

I Don`t Know (live) Tab

   
Ozzy Ozbourne
I don`t know (live)

Gtr I (E A D G B E) - 'Untitled'

               Intro
  Q=144
                A5                           B5/A
 4/4
  Gtr I
|------------||----------------------------|----------------------------|
|------------||----------------------------|----------------------------|
|------------||-2--------------------------|-4--------------------------|
|------------||-2--------------------------|-4--------------------------|
|------------||-0--0-0-0-0-0-0-0-0-0-0-0-0-|----0-0-0-0-0-0-0-0-0-0-0-0-|
|-----17\----||----------------------------|----------------------------|


  C5/A                       G5   D5           A5
|--------------------------|-3---------------|-----------------------------|
|--------------------------|-3----3----------|-----------------------------|
|-5------------------------|-0----2----------|-2---------------------------|
|-5------------------------|-0----0----------|-2---------------------------|
|----0-0-0-0-0-0-0-0-------|------0----------|-0--0-0-0-0-0-0-0-0-0-0-0-0--|
|--------------------/19\--|-3-------3b3.5p0-|-----------------------------|


  B5/A                         C5/A
|----------------------------|------------------------|
|----------------------------|------------------------|
|-4--------------------------|-5----------------------|
|-4--------------------------|-5----------------------|
|----0-0-0-0-0-0-0-0-0-0-0-0-|----0-0-0-0-0-0-0-0-x\--|
|----------------------------|--------------------x\--|


|-----------------------------------------||
|-------1p0h1p0h1p0-----------------------||
|-----x-------------2p0h2p0---------------||
|---x-----------------------2p0-----------||
|-x-----------------------------3p0-------||
|-----------------------------------3b4p0-||


 Verse 1
  A5                           B5/A                         C5/A
|----------------------------|----------------------------|--------------------|
|----------------------------|----------------------------|--------------------|
|-2--------------------------|-4--------------------------|-5------------------|
|-2--------------------------|-4--------------------------|-5------------------|
|-0--0-0-0-0-0-0-0-0-0-0-0-0-|----0-0-0-0-0-0-0-0-0-0-0-0-|----0-0-0-0---------|
|----------------------------|----------------------------|------------/17\----|


  G5   D5           A5                  B5/A
                       ~~~~~~~
|-3---------------|-------------------|----------------------------|
|-3----3----------|-------------------|----------------------------|
|-0----2----------|-2-[2]-(2)---------|-4--------------------------|
|-0----0----------|-2-----------------|-4--------------------------|
|------0----------|-0-----------------|----0-0-0-0-0-0-0-0-0-0-0-0-|
|-3-------3b3.5p0-|--------------18\--|----------------------------|


  C5/A                         G5      D5          A5
|----------------------------|-------------------|-----------------------------|
|----------------------------|-------------------|-----------------------------|
|-5--------------------------|-0-----------|-2---------------------------|
|-5--------------------------|-0--------|-2---------------------------|
|----0-0-0-0-0-0-0-0-0-0-0-0-|-------------------|-0--0-0-0-0-0-0-0-0-0-0-0-0--|
|----------------------------|-3-----------------|-----------------------------|


  B5/A                         C5/A
|----------------------------|----------------------------|
|----------------------------|----------------------------|
|-4--------------------------|-5--------------------------|
|-4--------------------------|-5--------------------------|
|----0-0-0-0-0-0-0-0-0-0-0-0-|----0-0-0-0-0-0-0-0-0-0-0-0-|
|----------------------------|----------------------------|


  G5   D5           A5                              B5/A
                                    \0.5/
|-3---------------|-------------------------------|----------------------------|
|-3----3----------|-------------------------------|----------------------------|
|-0----2----------|-2----()-()---()---|-4--------------------------|
|-0----0----------|-2-----------------------------|-4--------------------------|
|------0----------|-0-----------------------------|----0-0-0-0-0-0-0-0-0-0-0-0-|
|-3-------3b3.5p0-|-----------------------------0-|----------------------------|


                                            Pre-chorus
  C5/A                    G5   D5            G5             Fsus2/G
|-----------------------|-3---------------||--------------|---3-----3-------|
|-----------------------|-3----3----------||-0---0-(0)----|---1-----1-------|
|-5---------------------|-0----2----------||-0---0-(0)----|---0-----0-------|
|-5---------------------|-0----0----------||-0---0-(0)----|-3---3-3---------|
|----0-0-0-0-0-0--------|------0----------||--------------|------------0----|
|----------------19\--0-|-3-------3b3.5p0-||-3---3-(3)----|-3---0--------3--|


  G5              Fsus2/G              G5              Fsus2/G
|---------------|---1----3-----------|---------------|-----------3-------|
|-0---0-(0)-----|-1---1----3---------|-3--3--(3)-----|-----6-----6-6-----|
|-0---0-(0)-----|-0------------------|-0--0--(0)---0-|---5-----5---------|
|-0---0-(0)-----|-3------------------|-0--0--(0)-----|-3-----3-----------|
|---------------|--------------------|---------------|-------------------|
|-3---3-(3)---3-|-3----------5b6r(5)-|-3--3--(3)-----|---------------/6\-|


                               Chorus
  F    C/E     D5      C5 G5    A5
|-1----0-----|---------------||----------------------------|
|-1----1-----|---------------||----------------------------|
|-2----0-----|-7-------5-----||-2--------------------------|
|-3----2p==0-|-7-------5--5--||-2--------------------------|
|------------|-5-------3--5--||-0--0-0-0-0-0-0-0-0-0-0-0-0-|
|------------|-----(0)----3--||----------------------------|


  B5/A                         C5/A
|----------------------------|-------------------------------|
|----------------------------|-------------------------------|
|-4--------------------------|-5-----------------------0h5p0h|
|-4--------------------------|-5-----------------------------|
|----0-0-0-0-0-0-0-0-0-0-0-0-|----0-0-0-0-0-0----------------|
|----------------------------|----------------17\-(8)\-------|


  G5                      D5
|-----------------------------------------|
|-------------------------------------0---|
|-5p0h5p0h5p0h5p0h5p0h5p0h4p0h4p0h2p0-0---|
|-----------------------------------------|
|-----------------------------------------|
|-----------------------------------------|


  A5                         B5/A                       C5/A
|--------------------------|--------------------------|----------------------|
|--------------------------|--------------------------|----------------------|
|-2------------------------|-4------------------------|-5--------------------|
|-2--2---------------------|-4------------------------|-5--------------------|
|-0--0-0-0-0-0-0-0-0-0-0-0-|----0-0-0-0-0-0-0-0-0-0-0-|----0-0-0-0-----------|
|--------------------------|--------------------------|------------/19\---0--|


                      Verse 2
  G5                   A5
|-------------------||----------------------------|
|-------------------||----------------------------|
|-0----()-----||-2--------------------------|
|-0----()-----||-2--------------------------|
|-------------------||-0--0-0-0-0-0-0-0-0-0-0-0-0-|
|-3---------------0-||----------------------------|


  B5/A
|-----------------------------|
|-----------------------------|
|-4---------------------------|
|-4---------------------------|
|----0-0-0-0-0-0-0-0-0-0-0-0--|
|-----------------------------|


  C5/A                         G5   D5           A5
                                                           ~~~~~~
|----------------------------|-3---------------|-------------------|
|----------------------------|-3----3----------|-------------------|
|-5--------------------------|-0----2----------|-2-----------------|
|-5--------------------------|-0----0----------|-2-----------------|
|----0-0-0-0-0-0-0-0-0-0-0-0-|------0----------|-0-----------------|
|----------------------------|-3-------3b3.5p0-|----3--3b5r3-(3)-0-|


  B5/A                         C5/A                 G5   D5
|----------------------------|--------------------|-3----------------|
|----------------------------|--------------------|-3----3-----------|
|-4--------------------------|-5------------------|-0----2-----------|
|-4--------------------------|-5------------------|-0----0-----------|
|----0-0-0-0-0-0-0-0-0-0-0-0-|----0-0-0-0---------|------0-----------|
|----------------------------|------------19\---0-|-3-------3b3.5p0--|


  A5                           B5/A                         C5/A
|----------------------------|----------------------------|--------------------|
|----------------------------|----------------------------|--------------------|
|-2--------------------------|-4--------------------------|-5------------------|
|-2--------------------------|-4--------------------------|-5------------------|
|-0--0-0-0-0-0-0-0-0-0-0-0-0-|----0-0-0-0-0-0-0-0-0-0-0-0-|----0-0-0-0---------|
|----------------------------|----------------------------|------------/17\----|


  G5   D5           A5
|-3---------------|-------------------------------|
|-3----3----------|---------------/10-12-14-------|
|-0----2----------|-2--[2]--([2])-----------12\-0-|
|-0----0----------|-2-----------------------------|
|------0----------|-0-----------------------------|
|-3-------3b3.5p0-|-------------------------------|


  B5/A
|-----------------------------|
|-----------------------------|
|-4---------------------------|
|-4---------------------------|
|----0-0-0-0-0-0-0-0-0-0-0-0--|
|-----------------------------|


                                                 Pre-chorus
  C5/A                         G5   D5            G5
|----------------------------|-3---------------||--------------|
|----------------------------|-3----3----------||-3---3-(3)----|
|-5--------------------------|-0----2----------||-0---0-(0)----|
|-5--------------------------|-0----0----------||-0---0-(0)----|
|----0-0-0-0-0-0-0-0-0-0-0-0-|------0----------||--------------|
|----------------------------|-3-------3b3.5p0-||-3---3-(3)----|


  Fsus2/G          G5              Fsus2/G              G5
|---3-----3------|---------------|---1----3-----------|---------------|
|---1-----1------|-0---0-(0)-----|-1---1----3---------|-3--3--(3)-----|
|---0-----0------|-0---0-(0)-----|-0------------------|-0--0--(0)---0-|
|-3---3-3--------|-0---0-(0)-----|-3------------------|-0--0--(0)-----|
|------------0---|---------------|--------------------|---------------|
|-3---0--------3-|-3---3-(3)---3-|-3----------5b6r(5)-|-3--3--(3)-----|


                                                   Chorus
  Fsus2/G             F    C/E     D5      C5 G5    A5      D5       G5
                                                            ~~~~~~
|-----------3-------|-1----0-----|---------------||--------------------|
|-----6-----6-6-----|-1----1-----|---------------||---------7-(7)------|
|---5-----5---------|-2----0-----|-7-------5-----||-----7b8-7-(7)--0-0-|
|-3-----3-----------|-3----2p==0-|-7-------5--5--||-----7b8-7-(7)----0-|
|-------------------|------------|-5-------3--5--||-0-0----------------|
|---------------/6\-|------------|-----(0)----3--||--------------------|


          C5 G5        D5           G5          C5 G5    A5  D5           G5
                                                                 ~~~~~~
|----------------|--------------------|----------------|--------------------|
|----------------|--------------------|----------------|--------------------|
|-(0)-----5------|-----7b8-7-(7)----0-|-(0)-----5------|-----7b8-7-(7)----0-|
|-(0)-----5--5---|-----7b8-7-(7)----0-|-(0)-----5------|-2-0-7b8-7-(7)----0-|
|-------0-3--5---|-0-0------------0---|-------0-3------|-0-0------------0---|
|------------3p0-|--------------------|------------3p0-|------------------3-|


                                                 Bridge
  G5     C5 G5    A5                              D
                                                 2/2
                          ~~~~~~~~~
|---------------|--------------|---------------||--------0-----|
|---------------|--------------|---------------||-3----3---3---|
|-(0)----5------|-2------------|---------------||-2------------|
|-(0)----5------|-2------------|---------------||-0------------|
|--------3------|-0------------|---------------||--------------|
|-(3)-------3p0-|-----3-5-3----|-2---0-1-1-1-0-||--------------|


  D/C                  G/B                 F                  D
|--------2b3-(2)-----|--------3-(3)------|------------------|----------0-2---|
|--------------------|--------------3----|------3-3---------|----3---3-------|
|---(0)-----------2--|----(0)---------0--|---2------5s4-(2)-|------2-2-------|
|--------------------|-------------------|---3--------------|-0------0-------|
|-3------------------|-2-----------------|------------------|----------------|
|--------------------|-------------------|-1----------------|----------------|


  D/C               G/B                 F                 D
|------2-(2)------|-------3-(3)-------|---3-----3--3s5-||----------0-2----|
|------------3----|-----3-------3---3-|----------------||----3---3--------|
|---0-----------2-|---0-----------0---|-------2--------||------2----------|
|-----------------|-------------------|-3---3----------||-0------------0--|
|-3---------------|-2-----------------|----------------||-----------------|
|-----------------|-------------------|----------------||-----------------|


  D/C             G/B
|------2p0------|---------3-(3)------|
|----------3----|---------------3----|
|---0--------2--|---(0)-0------------|
|---------------|-----------------0--|
|-3-------------|-2------------------|
|---------------|--------------------|


  F                                 D
|---------------------------------|--------------------|
|---------------------------------|-------7h8p7-8s10---|
|-10h12p10------------------------|-------7-9-7--------|
|-10-------10h12p10-10h12p10------|-----7--------------|
|----------------------------12s9-|-9------------------|
|---------------------------------|--------------------|

[ Tab from: http://www.guitartabs.cc/tabs/o/osbourne_ozzy/i_dont_know_live_tab.html ]
  D/C                    G/B               F                 D
|----------------------|-8p7----7s10-----|-5h6p5---5-5h6p5-|----------0------|
|-(10)--(10)-----[10]--|--------8------8-|-----------------|----3---3-----3--|
|----------------------|------7------7---|-------5---5-----|------2----------|
|-------------7--------|-----------------|-----------------|-0----------0----|
|----------------------|-----------------|-----------------|-----------------|
|----------------------|-----------------|-----------------|-----------------|


  D/C                         G/B
|---------------------------|-------3-(3)------|
|---------------------------|-----0--------3---|
|---------------------------|---0------------2-|
|------()----|------------------|
|-3-------------------------|-2----------------|
|---------------------------|------------------|


  F                 D
|-----------------|---------------|
|-----------------|----3--3s5s7---|
|-----------------|----2--2-------|
|---------3h5-3s2-|-0-------------|
|-------3---------|---------------|
|-1-3s5-----------|---------------|


  C                  G/B              F                D
|------------------|---7s5-3-3-5p3--|---3-----3------|----------------|
|-------8-(8)------|-3-3---0--------|---------1------|----3---3s5s7---|
|-----5------------|-0--------------|-----2---2------|------2---------|
|---5------------0-|----------------|-3-----3-3--2-0-|-0--------------|
|-7------------3---|----------------|----------------|----------------|
|------------------|----------------|----------------|----------------|


                                                     Interlude
  C                  F      C/E       Dm     C5 G5    A5 D5/A         C5/A
                                                     4/4
                                                             ~~~~~~
|------------------|-1--------------|-1------------||--------------------|
|-------8-(8)--1---|-1------1-------|-3------------||--------------------|
|-----5----------2-|-2------0---(0)-|-2------5-----||----7b8-7-(7)----5--|
|---5--------------|-3--3-3-2p===0--|-0--0-0-5--0--||----7b8-7-(7)----5--|
|-7----------------|----------------|--------3--0--||-0-------------0----|
|------------------|----------------|--------------||--------------------|


         G5/A            A5      D5/A     C5/A
                                 ~~~~~~
|----------------------|--------------------|
|----------------------|--------------------|
|-(5)--0-7-------5b5.5-|-----7b8-7-(7)----5-|
|-(5)--0-7-------------|-----7b8-7-(7)----5-|
|----------5-6-7-------|-0-0------------0---|
|----------------------|--------------------|


         G5/A        A5      D5/A     C5/A
                             ~~~~~~   ~
|------------------|--------------------|
|--------7---------|--------------------|
|-(5)--0-7---------|-----7b8-7-(7)----5-|
|-(5)--0-7-------7-|-----7b8-7-(7)----5-|
|----------5-6-7---|-0-0------------0---|
|------------------|--------------------|


                                                            Guitar Solo
                     A5      D5/A     G5/A                   G5
   ~~~                       ~~~~~~                                 ~~~~~
|------------------|--------------------|-----------------||----------------|
|------------------|--------------------|-----------18b20-||-(18)--18b20----|
|-(5)--x-7-------5-|-----7b8-7-(7)--0-0-|-(0)-------------||----------------|
|-(5)--x-7-------5-|-----7b8-7-(7)--0-0-|-(0)-------------||----------------|
|----------5-6-7---|-0-0----------------|-----------------||----------------|
|------------------|--------------------|-----------------||----------------|


|-15-------------------15-------------------------------|
|----18-15-------15-15----18p15----15-------------------|
|----------17b19----------------18----18-15-17-15-------|
|-------------------------------------------------17-15-|
|-------------------------------------------------------|
|-------------------------------------------------------|


                    ~~~~                                      ~~~~
|-----------17b19-(17)---17pb19==|=(17)r(17)p15------------------------|
|--------------------------------|--------------18p15-17b18-(17)--0-13-|
|-17b19-15-----------------------|-------------------------------------|
|--------------------------------|-------------------------------------|
|--------------------------------|-------------------------------------|
|--------------------------------|-------------------------------------|


        T     T         T     T         T     T     T     T     T     T     T          T
|-------------------------------------------------------------------------------------------|
|-(13)-16p13-16b17=p13-16p13-16b18=p13-16p13-16p13-16p13-16p13-16p13-16p13-16p13-(13)-16p13-|
|-------------------------------------------------------------------------------------------|
|-------------------------------------------------------------------------------------------|
|-------------------------------------------------------------------------------------------|
|-------------------------------------------------------------------------------------------|


        T     T
|----------------------------------|
|-(13)-16p13-16p(13)r--------------|
|----------------------------3p0h==|
|----------------------------------|
|----------------------------------|
|----------------------15S=0-------|


|-------------------------------------------------|
|-------------------------------------------------|
|-3p0h3p0h3p0h3p0h3p0h3p0b2=h3p0h3p0h3p0rh3p0h3p0h|
|-------------------------------------------------|
|-------------------------------------------------|
|-------------------------------------------------|


                 ~~~~~~~~~~~~~
|-------------------------------|
|-------------------------------|
|-3p0h3p0h3p0h3s17-(17)-17-17---|
|-------------------------------|
|-------------------------------|
|-----------------------------0-|


|-----------------------------------------18-20-21-20-|
|--------------------------------20p17s20-------------|
|----------------------(15)-17-x----------------------|
|----------------15-17--15----------------------------|
|-------13h15s17--------------------------------------|
|-13h15-----------------------------------------------|


|-18-20-21-20-18-20-20-20-20s21s20h21p20p18----18--------|
|-------------------------------------------20----20p18--|
|--------------------------------------------------------|
|--------------------------------------------------------|
|--------------------------------------------------------|
|--------------------------------------------------------|


          ~~~~~~~~~~~
|-20b22--20b22--(20)-(0)------------|----------------------------------------|
|--------------------(0)-----15b18==|=(15)-(15)r(15)b18====15--(15)-(15)rx-0-|
|------------------------(0)--------|----------------------------------------|
|-----------------------------------|----------------------------------------|
|-----------------------------------|----------------------------------------|
|-----------------------------------|----------------------------------------|


|-----------------------------------------------|
|-11-10-------11-10-------11-10-------10-9------|
|-------12-10-------12-10-------12-10------11-9-|
|-----------------------------------------------|
|-----------------------------------------------|
|-----------------------------------------------|


|----------------------------------|-------3-------------------------|
|-9-8------7-6-----6-5-----4p3-----|-----3---6p3-4p3---3-------------|
|-----10-8-----8-6-----7-5-----5p3-|-5b7-------------6---6p3-5p3---3-|
|----------------------------------|-----------------------------5---|
|----------------------------------|---------------------------------|
|----------------------------------|---------------------------------|


|---------------------------------------------------------||
|---------15-18p15----15-17b19==(17)r(17)b19==(17)r(17)\--||
|-5s17b19----------17----17-----(17)-(17)-----(17)-(17)\--||
|---------------------------------------------------------||
|---------------------------------------------------------||
|---------------------------------------------------------||


  A5     D5/A     C5/A
         ~~~~~~
|-------------------|------------------------------|
|-------------------|---------1p0-1p0--------------|
|----7b8-7-(7)----5-|-(5)-5-0---------2p0----------|
|----7b8-7-(7)----5-|-(5)-5---------------2p0------|
|-0-------------0---|-------------------------3p0--|
|-------------------|------------------------------|


  A5     D5/A     C5/A                                  A5     D5/A     C5/A
         ~~~~~~                                                ~~~~~~
|-------------------|---------5-----------------------|--------------------|
|-------------------|-------5---8p5-6p5---5-----------|--------------------|
|----7b8-7-(7)----5-|-5-7b9-------------8---8p7p5b5.5-|----7b8-7-(7)--0-5--|
|----7b8-7-(7)----5-|-5-------------------------------|----7b8-7-(7)----5--|
|-0-------------0---|---------------------------------|-0------------------|
|-------------------|---------------------------------|--------------------|


                                    A5       D5/A      G5/A
                            ~~~~
|----------17----20-20b22-(20)----|----------------------|-------------------||
|-------------17------------------|----------------7-----|-------------------||
|-(5)h6s18------------------------|-x\-0-7b8-7-(7)-7-0-0-|-(0)h2-----------2-||
|-(5)-----------------------------|-x\---7b8-7-(7)-7---0-|-(0)h2-----------2-||
|---------------------------------|-x\-------------------|-------------------||
|---------------------------------|----------------------|-------17s===3p0---||


  A5                           B5/A                       C5/A
|----------------------------|--------------------------|--------------------|
|----------------------------|--------------------------|-8------------------|
|----------------------------|-4------------------------|-5------------------|
|----------------------------|-4------0-----------------|--------------------|
|-0--0-0-0-0-0-0-0-0-0-0-0-0-|-0--0-0---0-0-0-0-0-0-0-0-|----0-0-0-0---------|
|----------------------------|--------------------------|------------19\---0-|


  G5   D5       A5                           B5/A
|-------------|----------------------------|-----------------------------|
|-0----3------|----------------------------|-----------------------------|
|-0----2------|-2--------------------------|-----------------------------|
|-0----0------|-2--------------------------|-4---------------------------|
|-------------|-0--0-0-0-0-0-0-0-0-0-0-0-0-|----0-0-0-0-0-0-0-0-0-0-0-0--|
|-3-------3-0-|----------------------------|-----------------------------|


  C5/A
|------------------------20b22==(20)-|
|------------------------------------|
|-5----------------------------------|
|-5----------------------------------|
|----0-0-0-0-0-0-0-0-0-0-------------|
|------------------------------------|


                                                ~~~~
|-(20)r-17-(20)-17----17---------------------------------||
|------------------20----20-17----17---------------------||
|------------------------------19----19-17-19-(19)-(19)\-||
|--------------------------------------------------------||
|--------------------------------------------------------||
|--------------------------------------------------------||


 Verse 3
  A5
|----------------------------|
|----------------------------|
|-2--------------------------|
|-2--------------------------|
|-0--0-0-0-0-0-0-0-0-0-0-0-0-|
|----------------------------|


  B5/A                         C5/A
|----------------------------|----------------------------|
|----------------------------|----------------------------|
|-4--------------------------|-5--------------------------|
|-4--------------------------|-5--------------------------|
|-0--0-0-0-0-0-0-0-0-0-0-0-0-|-0--0-0-0-0-0-0-0-0-0-0-0-0-|
|----------------------------|----------------------------|


  G5       D5          A5                     B5/A
                           ~~~~~~~~~~
|--------------------|----------------------|----------------------------|
|--------------------|---------------x------|----------------------------|
|-0-----------17-|----[2]--([2])-x------|-4--------------------------|
|-0-------17-|----------------------|-4--------------------------|
|--------------------|-0--------------------|-0--0-0-0-0-0-0-0-0-0-0-0-0-|
|-3------------------|-----------------17\--|----------------------------|


  C5/A                    G5             A5
|-----------------------|--------------|-----------------------------|
|-----------------------|--------------|-----------------------------|
|-5----------7b8r(7)\---|-0----------0-|-2---------------------------|
|-5---------------------|-0-----0----0-|-2---------------------------|
|-0--0-0-0-0------------|------[5]-----|-0--0-0-0-0-0-0-0-0-0-0-0-0--|
|-----------------------|-3----------3-|-----------------------------|


  B5/A                         C5/A                         G5   D5
|----------------------------|----------------------------|-3----------------|
|----------------------------|----------------------------|-3----3-----------|
|-4--------------------------|-5--------------------------|-0----2-----------|
|-4--------------------------|-5--------------------------|-0----0-----------|
|-0--0-0-0-0-0-0-0-0-0-0-0-0-|-0--0-0-0-0-0-0-0-0-0-0-0-0-|------0-----------|
|----------------------------|----------------------------|-3-------3b3.5p0--|


  A5                        B5/A                         C5/A
            \0.5_____/
|-------------------------|----------------------------|-----------------------|
|-------------------------|----------------------------|-----------------------|
|-2----()----()--|-4--------------------------|-5---------------------|
|-2-----------------------|-4--------------------------|-5---------------------|
|-0-----------------------|-0--0-0-0-0-0-0-0-0-0-0-0-0-|-0--0-0-0-0-0-0--------|
|-------------------------|----------------------------|----------------19\--0-|


                    Pre-chorus
  G5   D5            G              Fsus2/G            G5
|-3---------------||--------------|---------3--------|-----------------|
|-3----3----------||-0--(0)----0--|---6-----3--------|-3--(3)----(3)---|
|-0----2----------||-0--(0)----0--|-----5------------|-0--(0)----(0)-0-|
|-0----0----------||-0--(0)----0--|-3-----3----------|-0--(0)----(0)---|
|------0----------||--------------|------------------|-----------------|
|-3-------3b3.5p0-||-3--(3)----3--|------------5b6-0-|-3--(3)----(3)---|


  Fsus2/G              G5          Fadd9             F     C/E
|--------3-----------|-----------|---3-----3-------|--------------|
|-6--------6---------|-----------|-1-----1-----1---|-1-----(1)----|
|-5--5---------------|-0-------0-|-2---2-2-----2---|-2------0-----|
|-3----3-------------|-0---------|-3---3-----3---2-|-3---3--2p==0-|
|--------------------|-----------|-----------------|--------------|
|------------5b6r(5)-|-3---------|-----------------|--------------|


  D5    C5 G5    A5
|--------------|-----------*|
|--------------|-----------*|
|-7-----5--0---|-----------*|
|-7-----5--0---|-7\--------*|
|-5---0-3------|-7\--------*|
|----------3p0-|-5\--------*|



Comments