Osbourne Ozzy - Goodbye To Romance Live Chords & Tabs

 

Goodbye To Romance Live Chords & Tabs

Osbourne Ozzy Chords & Tabs

Version: 1 Type: Tab 0 ratings
1 star 2 stars 3 stars 4 stars 5 stars
comments

Goodbye To Romance Live Tab

   
Ozzy Ozbourne
Goodbye to romance   live

                                        rse
  Slow Rock Q=74             D           D/C#      Bm          A         Dmaj7
 4/4
  Gtr I
|---------0-|-2h3-2h3p2---2p0---0-|---0--------------0-||-------5-(5)--^5--|
|-------3---|-----------5-----3---|-3---2h3p2---2--3---||-7------------^5--|
|-----------|---------------------|-----------4--------||-6---6--------^4--|
|-----------|---------------------|--------------------||---7----------^4--|
|-----------|---------------------|--------------------||-5----------------|
|-----------|---------------------|--------------------||------------------|


        F#m7     G6                      A
|-^9----^12----|-------0-(0)-----------|-----------------|
|-^7----^10----|-3---3-------3-------2h|=3--2--0--2h3h5--|
|-^7----^-9----|-0-0-----------0h2h4---|-------0---------|
|-^7----^11----|-----------------------|-----------------|
|-------^-9----|-----------------------|-----------------|
|--------------|-3---------------------|-----------------|


  Dmaj7                         F#m7       G6
|------5-(5)-9p5-----|-9---9s12----------|------0-(0)------------|
|-7--7-----------7---|-7--------10-(10)--|-3--3-------3-0h2h3-2--|
|-6----------------7-|-7---------9--(9)--|-0------------0-2-4----|
|--------------------|-7--------11-(11)--|-0---------------------|
|-5------------------|-----------9--(9)--|-----------------------|
|--------------------|-------------------|-3---------------------|


                   Chorus
  A                 D        A/C#
           <
|----------------||--------------------------|
|-3--2-----2h3h5-||-3--3h5p3-------2-(2)h3p2-|
|-------4--------||-2------------2-----------|
|----------------||-0----------2-------------|
|----------------||----------4---------------|
|----------------||--------------------------|


  Bm          Bm/A              G6
|-------2-------------0-------|------0-(0)---0---|
|-3---3---3---------3---3-----|-8--8-------------|
|-4-4-------4-----4-------4---|-7--7-------7---7-|
|-4-------------4-----------4-|-5----------------|
|-2-----------0---------------|------------------|
|-----------------------------|------------------|


  Asus4A                D        A/C#              Bm          Bm/A
|---------------------|--------2-----------------|-------2-------------0-------|
|-3-3--2-(2)----------|-3--3h5---------2-(2)h3p2-|-3---3---3---------3---3-----|
|-2-2--2-(2)----------|-2------------2-----------|-4-4-------4-----4-------4---|
|-2-2--2-(2)------0h2-|-0----------2-------------|-4-------------4-----------4-|
|-0-----------0h2-----|----------4---------------|-2-----------0---------------|
|---------------------|--------------------------|-----------------------------|


  G6                 Asus4       A              D       D/C#
|------0-(0)---0---|------------------------0-|-2-5-3p2-2p0---0--|
|-3--3-------3---3-|-3---3-(3)---2-(2)--2h3---|-------------3----|
|-0--0-------------|-2---2-(2)---2-(2)--------|------------------|
|-0----------------|-2---2-(2)---2-(2)--------|------------------|
|------------------|-0-0-------0--------------|------------------|
|-3----------------|--------------------------|------------------|


                         Verse
  Bm          A           Dmaj7                   Bm          F#m7
                 >
|---0------------------||------5-(5)-10p9-------|-^9--9s10s12-^12---9--|
|-3---2h3p2---2--3h5S7-||-7--7------------10----|-^7----------^10--10--|
|-----------4----------||-6------------------11-|-^7----------^-9---9--|
|----------------------||-7---------------------|-^7----------^11--11--|
|----------------------||-5---------------------|-------------^-9---9--|
|----------------------||-----------------------|----------------------|


  G6                      A             Dmaj7
|-------0-(0)-----------|-------------|-------5-(5)-9p5-------|
|-3---3-------3-------2-|-3--2--3--5--|-7---7-----------7-----|
|-0---0---------0h2h4---|----2--4--6--|-6-----------------7-4-|
|-0-0-------------------|-------------|---7-------------------|
|-----------------------|-------------|-5---------------------|
|-3---------------------|-------------|-----------------------|


            F#m7    G6                     A
                                                    <
|-^9---9s12-12----|------0-(0)-----------|----------------|
|-^7--------10----|-3--3-------3-------2h|=3--2-----2h3h5-|
|-^7---------9----|-0--0---------0h2-4---|-------4--------|
|-^7--------11----|----------------------|----------------|
|------------9----|----------------------|----------------|
|-----------------|-3--------------------|----------------|


 Chorus
  D        A/C#
|--------2-----------------|
|-3--3h5---------2-(2)h3p2-|
|-2------------2-----------|
|-0----------2-------------|
|----------4---------------|
|--------------------------|


  Bm          Bm/A              G6
|-----2---------------0-------|------0-(0)---0-------|
|-3-----3-----------3---3-----|-3--3-3-(3)-3---3---3-|
|---4-----4-------4-------4---|----0-------0-----0---|
|-----------4---4-----------4-|----------------------|
|-2-----------0---------------|----------------------|
|-----------------------------|-3--------------------|


  Asus4 A                D         A/C#              Bm          Bm/A
|----------------------|---------------------------|-------2-----0----|
|-3-3-3-2-(2)----------|-3-3-3h5p3-------2-(2)h3p2-|-3---3---3---3----|
|-2-2-2-2-(2)----------|-2-------------2-----------|-4-4-------4-4----|
|-2-2-2-2-(2)----------|-0-----------2-------------|-4-----------4----|
|-0------------2p0-----|-----------4---------------|-2-----------0----|
|------------------2p0-|---------------------------|------------------|


  G6                  Asus4   A              D         D/C#
|------0-(0)--------|----------------------|-2h3-2h3p2---2p0---5-|
|-3--3--------3h5p3-|-3-3-0h2-2-(2)--2h3h5-|-----------5-----3---|
|-0-----------------|-2-2-----2-(2)--------|---------------------|
|-0-----------------|-2-2-----2-(2)--------|---------------------|
|-------------------|-0--------------------|---------------------|
|-3-----------------|----------------------|---------------------|


                            Bridge
  Bm        A7               Em7                   A7
|---0---------------------||------10-(10)--^9-10-|-10p9-9\-7-7--^9--|
|-3---2h3p2---2-----------||----8----------^8----|--------------^8--|
|-----------4---0---------||----9----------^9----|--------------^9--|
|-------------------------||---------------------|------------------|
|-------------------------||---------------------|------------------|
|-----------------2h3p2p0-||-0-------------------|------------------|


  D                                    D
|------------------------------------|-------------------------|
|------------------------------------|--------------------10-8-|
|-7h9p7------------------7h9p7-------|-7h9p7-------------------|
|-------9-(9)---7--7h9p7-------7h9p7-|-------9-(9)-------------|
|-------------9-9--------------------|-------------9-(9)-------|
|------------------------------------|-------------------------|


  Em7                   A7
|-------10-(10)--9-10-|-10--9p7-7--^9s10-|
|-8---8---------------|------------^8----|
|-9-9-----------------|------------^9----|
|---------------------|------------------|
|---------------------|------------------|
|---------------------|------------------|


  D
|---------------------------------------|
|---------------------------------------|
|-11p9p7-----------7--------7h9p7-------|
|--------9-(9)-----7--7h9p7-------7h9p7-|
|--------------9-7h9--------------------|
|---------------------------------------|


                               Guitar Solo
  D                             D             D/C#
  Gtr II
  <
                 ~~~~           ~                    ~~
|----------------------------||---------------15p14------|
|-7-8-(8)-8-10-(10)----------||---------------------17---|
|-7-9-(9)-9-11-(11)------7h9-||-7--9s11s10s14------------|
|--------------------7h9-----||--------------------------|
|----------------------------||--------------------------|
|----------------------------||--------------------------|


  Bm                             Bm/A
                                              ~~~~~~~
|-----------14h15p14----14----------------14---------14-15--|
|------(15)----------17----17p15p14-17b19----17-(17)--------|
|-(16)------------------------------------------------------|
|-----------------------------------------------------------|
|-----------------------------------------------------------|
|-----------------------------------------------------------|


  G
|-17p15p14----14-------------------------------14-15p14h15p14-17p15h17p15-19p17h19p17-21p19h21p19--|
|----------17----17p15p14h15----------14h15h17-----------------------------------------------------|
|----------------------------16p14h16--------------------------------------------------------------|
|--------------------------------------------------------------------------------------------------|
|--------------------------------------------------------------------------------------------------|
|--------------------------------------------------------------------------------------------------|


  A
                                                        ~~~~~~~~
|-21b23.5-21b23.5-21b23.5-21b23.5-21b23.5-21b22==(21)r(21)-(21)--|
|----------------------------------------------------------------|
|----------------------------------------------------------------|
|----------------------------------------------------------------|
|----------------------------------------------------------------|
|----------------------------------------------------------------|

[ Tab from: http://www.guitartabs.cc/tabs/o/osbourne_ozzy/goodbye_to_romance_live_tab.html ]
  D                 D/C#
                               ~~~~~~~
|--------7----------------------------7-9-|
|------7---10p7-8p7------10---------------|
|-9b11--------------9b11----9-(9)-(9)-----|
|-----------------------------------------|
|-----------------------------------------|
|-----------------------------------------|


  Bm                            Bm/A
                                        ~
|-9pb10r(9)p7----7--------------------------|
|-------------10---10-8p7---7-----------7---|
|-------------------------9---9p7-6-7-9-----|
|-------------------------------------------|
|-------------------------------------------|
|-------------------------------------------|


  G
|-9-10-7-9----7-----------------------|
|----------10---8-10-7-8---7----------|
|------------------------9---7-9-6-7--|
|-------------------------------------|
|-------------------------------------|
|-------------------------------------|


  A
    ~~~~~~~
|-----------------------------14-15-17p15p14----|
|--------------------15h17-19----------------15-|
|-7h9--/11--14h16-18----------------------------|
|-----------------------------------------------|
|-----------------------------------------------|
|-----------------------------------------------|


 Chorus
  D          A/C#              Bm              Bm/A
   ~~
|-14---(14)\-----------------|---------2---------------0-------|
|-15---(15)\-------2-(2)h3p2-|-------3---3-----------3---3-----|
|----------------2-----------|-----4-------4-------4-------4---|
|--------------2-------------|---4-----------4---4-----------4-|
|------------4---------------|-2---------------0---------------|
|----------------------------|---------------------------------|


  G6                Asus4A                D      A/C#
|------0-(0)----0-|---------------------|------0-----------------|
|-3--3--------3---|-3-3--2-(2)----------|----3---------2-(2)h3p2-|
|-0--0------------|-2-2--2-(2)----------|----2-------2-----------|
|-----------------|-2-2--2-(2)--2h4-----|-0--------2-------------|
|-----------------|-0---------------2p0-|--------4---------------|
|-3---------------|---------------------|------------------------|


  Bm            Bm/A              G6                   Asus4A
|-2-----2---------------0-------|------0-(0)-------0-|------------------|
|-3---3---3-----------3---3-----|-3--3-----------3---|-3-3--2-(2)-------|
|-4-4-------4-------4-------4---|-0--0---------------|-2-2--2-(2)-------|
|-4-----------4---4-----------4-|--------------0-----|-2-2--2-(2)-------|
|-2-------------0---------------|--------------------|-0----------------|
|-------------------------------|-3----------3-------|-------------12\--|


  D          D/C#   Bm   G  A    G
                         ~       ~
|-----------------|------------|---------------|
|-----------------|------------|---------------|
|-----------------|------------|---------------|
|-----------------|------------|---------------|
|-5--(5)h7p5-4----|-2----------|---------------|
|-----------------|------3--5--|-3----3-5--5S7-|


  A
|--------------------------------|
|--------------------12p10-------|
|----------------9p7-------11p9\-|
|------------9p7-----------------|
|--------9p7---------------------|
|-5--9p7-------------------------|


 Interlude
  D    A/C#       Bm          Bm/A          G
  >
|------10s12----|-12s14--14\--12---/14s12S|=10----10-12--12s14-|
|-------7s=9----|-------------------------|--------------------|
|-7-------------|--9s11--11\---9---/11s=9S|==7-----7--9---9s11-|
|---------------|-------------------------|--------------------|
|---------------|-------------------------|--------------------|
|---------------|-------------------------|--------------------|


  A                                      D        A/C#
|-14s12-12s10-10s9-9s7-7s5-------------|----2s3s5------------------|
|--------------------------------------|-3--3h5s7-------2-(2)h3-2--|
|-11s=9--9s=7--7s6-6s4-4s2-----4p2-----|-2------------2------------|
|--------------------------4p2-----4p2-|-0----------2--------------|
|--------------------------------------|----------4----------------|
|--------------------------------------|---------------------------|


  Bm            Bm/A
|-------2---------------0-------|
|-3---3---3-----------3---3-----|
|-4-4-------4-------4-------4---|
|-------------4---4-----------4-|
|---------------0---------------|
|-------------------------------|


  G6                     Asus4A
|------0-(0)-------0---|--------------------------------|
|-3--3-------3-------3-|-3-3--2-------------------------|
|-0--0-----------0-----|-2-2--2-4-2-0-------------------|
|----------------------|-2-2--2-------4-2-0-------------|
|----------------------|-0------------------4-2-0-------|
|-3------------3-------|--------------------------3-2-0-|


 Chorus
  D        A/C#              Bm            Bm/A              G6
  Gtr I
|--------------------------|-------2---------------0-------|------0-(0)-------|
|-3--3h5S7-------2-(2)h3-2-|-3---3---3-----------3---3-----|-3--3--------3s5--|
|-2------------2-----------|-4-4-------4-------4-------4---|-0--0-------------|
|-0----------2-------------|-4-----------4---4-----------4-|------------------|
|----------4---------------|-2-------------0---------------|------------------|
|--------------------------|-------------------------------|-3----------------|


  Asus4A                D           A/C#
|---------------------|--------------2-------|
|-3-3--2-(2)----------|-----2h3p2-3----3-----|
|-2-2--2-(2)----------|---2--------------4---|
|-2-2--2-(2)------0h2s|=4------------------4-|
|-0-----------0h2-----|----------------------|
|---------------------|----------------------|


  Bm              Bm/A
|---------2---------------0---------|
|-------3---3-----------3---3-------|
|-4---4-------4-------4-------4-----|
|---4-----------4---4-----------4---|
|-----------------0-----------------|
|-----------------------------------|


                                         Synthesizer Solo
  G6                Asus4A                D          A/C#
  Gtr III
|-----------------|---------------------|--------0-2-5-------------7-9-|
|-----------------|---------------------|-3----------------------------|
|-----------------|---------------------|------------------------------|
|-----------------|---------------------|------------------------------|
|-----------------|---------------------|------------------------------|
|-----------------|---------------------|------------------------------|
|
| Gtr I
|------0-(0)------|---------------------|------------------------------|
|-3--3--------3s5-|-3-3--2-(2)----------|-3--3h5p3---------2-(2)h3p2---|
|-0--0------------|-2-2--2-(2)----------|-2--------------2-------------|
|-----------------|-2-2--2-(2)--4-2-0h2-|-0------------2---------------|
|-----------------|-0-------------------|------------4-----------------|
|-3---------------|---------------------|------------------------------|


  Bm             Bm/A                G6                    Asus4A
|-10-7-------2---(2)-----------3-5-|-7-3-------------0-2-|-2----0-(0)----------|
|----------------------------------|-------3-(3)---------|---------------------|
|----------------------------------|---------------------|-----------------2---|
|----------------------------------|---------------------|---------------------|
|----------------------------------|---------------------|---------------------|
|----------------------------------|---------------------|---------------------|
|
|--------2-----------------0-------|-------0-(0)-----0---|---------------------|
|--3---3---3-------------3---3-----|-3---3---------3-----|-3-3--2-(2)----------|
|----4-------4---------4-------4---|-0-----------0-------|-2-2--2-(2)----------|
|--------------4-----4-----------4-|---------------------|-2-2--2-(2)------0-2-|
|--2--------------0----------------|---------------------|-0-----------0-2-----|
|----------------------------------|-3-------------------|---------------------|


  D          A/C#
|--------0-2-5-------------7-9-|
|-3----------------------------|
|------------------------------|
|------------------------------|
|------------------------------|
|------------------------------|
|
|------------------------------|
|----3h5p3---------2-(2)h3p2---|
|-2--------------2-------------|
|-0------------2---------------|
|------------4-----------------|
|------------------------------|


  Bm               Bm/A                G6
|-10---7-------2---(2)-----------3-5-|-7-3------------0-2-|
|------------------------------------|-------3-(3)--------|
|------------------------------------|--------------------|
|------------------------------------|--------------------|
|------------------------------------|--------------------|
|------------------------------------|--------------------|
|
|----------2-----------------0-------|-------0-(0)----0---|
|--3-----3---3-------------3---3-----|-3---3--------3-----|
|------4-------4---------4-------4---|-0---0--------------|
|----4-----------4-----4-----------4-|--------------------|
|--2----------------0----------------|--------------------|
|------------------------------------|-3------------------|


  Asus4A              D         D/C#        Bm        A
|-2----0-(0)--------|---------------------|--------------------|
|-------------------|---------------------|--------------------|
|-------------------|---------------------|--------------------|
|-------------------|---------------------|--------------------|
|-------------------|---------------------|--------------------|
|-------------------|---------------------|--------------------|
|
|-----------------0-|-2h3-2h3p2---2p0---0-|---0--------------0-|
|-3-3--2-(2)--2h3---|-----------5-----3---|-3---2h3p2---2--3---|
|-2-2--2-(2)--------|---------------------|-----------4--------|
|-2-2--2-(2)--------|---------------------|--------------------|
|-0-----------------|---------------------|--------------------|
|-------------------|---------------------|--------------------|


  H.=H
  D/F#    Em  A/C#  D
  Gtr I
              >
|---------3p2-2p0-|-------*|
|-3---------------|-^3----*|
|---2-------------|-^2----*|
|-----0-----------|-^4----*|
|-------2-----4---|-^5----*|
|-2-------0-------|-------*|



Comments