Osbourne Ozzy - Get Me Through Solo Chords & Tabs

 

Get Me Through Solo Chords & Tabs

Osbourne Ozzy Chords & Tabs

Version: 1 Type: Tab 0 ratings
1 star 2 stars 3 stars 4 stars 5 stars
comments

Get Me Through Solo Tab

Ozzy Osbourne "Get's Me Through".  
tabbed by: Stu_ES
Tuning: EADGBE

PM- Palm Mute
V - Vibrato
B - Bend
Intro/Chorus
E|---------------------------------------------|
B|---------------------------------------------|
G|---------------------------------------------|
D|--22-2-4^---2-2-4^--2-2-22-2-4^--2-2-2----0h2|
A|--22-2-4^---2-2-4^--2-2-22-2-4^--2-2-2-0h2---|
E|--00-0-2^---0-0-2^--0-0-00-0-2^--0-0-0-------|


Verse

E|---------------------------------------------|
B|---------------------------------------------|
G|---------------------------------------------|
D|--22-2--5---2-2-5---2-2-22-5--2-2---5--2-----|
A|--22-2--5---2-2-5---2-2-22-5--2-2---5--2-----|
E|--00-0--3---0-0-3---0-0-00-3--0-0---3--0-----|
PM  -- -      - -     - - --    - -      -
[ Tab from: http://www.guitartabs.cc/tabs/o/osbourne_ozzy/get_me_through_solo_tab.html ]
Solo (beginning before ver very fast part)
E|---------------------------------------------|
B|---------------------------------------------|
G|---9-11-12-9-11-12----12-11----12-11-9-------|
D|------------------10-------10----------------|
A|---------------------------------------------|
E|---------------------------------------------|

E|---------------------------------------------|
B|---------------------------------------------|
G|---9-11-12-9-11-12----12-11-9----9v-11b-11---|
D|-------------------10------------------------|
A|---------------------------------------------|
E|---------------------------------------------|

E|---------------------------------------------|
B|---------------------------------------------|
G|-11--9v---13b-12-11-11-12------13b-13v-12----|
D|--------------------------10-----------------|
A|---------------------------------------------|
E|---------------------------------------------|

E|---------------------------------------------|
B|---------------------------------------------|
G|-11-12---------------------------------------|
D|-------10------------------------------------|
A|---------------------------------------------|
E|---------------------------------------------|

Hope you enjoy this amazing solo
Comments