Osbourne Ozzy - Dreamer Chords & Tabs

 

Dreamer Chords & Tabs

Osbourne Ozzy Chords & Tabs

Version: 1 Type: Tab 0 ratings
1 star 2 stars 3 stars 4 stars 5 stars
comments

Dreamer Tab

Artist: Ozzy Osbourne

Title: Dreamer

Album: Down to Earth

Tabbed by: Matt Walker

E-mail: zeuzman@bolt.com

Notes

~	Vibrato
7b9	Bend to note
7h9	Hammer on note
(8) Ghost note
9p6	Pull-off note

Intro (when Ozzy begins to sing)


e  ||------------------------------------------------------------------------------------------------------              
B ||-------------------------------------------------------------------------------------------------------
G ||---6-6-6-6-----3-3-3-3-----6-6-6-6------3-3-3-3--------------------------------------------------------
D ||---6-6-6-6-----3-3-3-3-----6-6-6-6------3-3-3-3--------------------------------------------------------
A ||---4-4-4-4-----1-1-1-1-----4-4-4-4------1-1-1-1--------------------------------------------------------
E  ||------------------------------------------------------------------------------------------------------                            

e  ||------------------------------------------------------------------------------------------------------          
B ||-------------------------------------------------------------------------------------------------------
G ||-----6-6-6-6-------8-8-8-8-----------------------------------------------------------------------------
D ||-----6-6-6-6-------8-8-8-8-----6-6-6-6-----6-6-6-6-----------------------------------------------------
A ||-----4-4-4-4-------6-6-6-6-----6-6-6-6-----6-6-6-6-----------------------------------------------------
E  ||------------------------------4-4-4-4-----4-4-4-4------------------------------------------------

(Repeat)

Chorus:-
e  ||------------------------------------------------------------------------------------------------------               
B ||-------------------------------------------------------------------------------------------------------
G ||---6-6-6-6-----3-3-3-3---------------------------------------------------------------------------------
D ||---6-6-6-6-----3-3-3-3---------3-3-3-3------6-6-6-6----------------------------------------------------
A ||---4-4-4-4-----1-1-1-1---------3-3-3-3------6-6-6-6----------------------------------------------------                   E||-------------------------------1-1-1-1------4-4-4-4---------------------------------------------------

Verse (Again!)

e  ||------------------------------------------------------------------------------------------------------         
B ||-------------------------------------------------------------------------------------------------------
G ||---6-6-6-6------3-3-3-3-----6-6-6-6------3-3-3-3-------------------------------------------------------
D ||---6-6-6-6------3-3-3-3-----6-6-6-6------3-3-3-3-------------------------------------------------------                  A ||---4-4-4-4------1-1-1-1-----4-4-4-4------1-1-1-1-------------------------------------------------------
E  ||------------------------------------------------------------------------------------------------------



e  ||------------------------------------------------------------------------------------------------------          
B ||-------------------------------------------------------------------------------------------------------
G ||-----6-6-6-6-------8-8-8-8-----------------------------------------------------------------------------
D ||-----6-6-6-6-------8-8-8-8----6-6-6-6-----6-6-6-6------------------------------------------------------
A ||-----4-4-4-4-------6-6-6-6----6-6-6-6-----6-6-6-6------------------------------------------------------
E||-------------------------------4-4-4-4-----4-4-4-4------------------------------------------------------

Chorus:

e  ||------------------------------------------------------------------------------------------------------               
B ||-------------------------------------------------------------------------------------------------------
G ||---6-6-6-6-----3-3-3-3---------------------------------------------------------------------------------
D ||---6-6-6-6-----3-3-3-3---------3-3-3-3------6-6-6-6----------------------------------------------------
A ||---4-4-4-4-----1-1-1-1---------3-3-3-3------6-6-6-6----------------------------------------------------                   E||-------------------------------1-1-1-1------4-4-4-4----------------------------------------------------

(REPEAT)

Riff before Solo:

e ||-------------------------------------------------------------------------------------------------------              
B ||-------------------------------------------------------------------------------------------------------
G ||-----8-8-8-8--------------8-8-8-8----------------------------------------------------------------------
D ||-----8-8-8-8---6-6-6-6----8-8-8-8----6-6-6-6-----------------------------------------------------------
A ||-----6-6-6-6---6-6-6-6----6-6-6-6----6-6-6-6-----------------------------------------------------------                  E ||---------------4-4-4-4----------------4-4-4-4----------------------------------------------------------


Solo:
[ Tab from: http://www.guitartabs.cc/tabs/o/osbourne_ozzy/dreamer_tab.html ]
e  ||----------------------------------------------------------------------------------------------------             
B ||--------------6 ~ ~ ----------------------6-7-9-11-6 ~ ~ -6p4----------------------------------------
G ||------6-8-6-----------6-8--------6-8-6--------------------------6------------------------------------
D ||-----------------------------8-----------------------------------------------------------------------
A ||-----------------------------------------------------------------------------------------------------
E  ||----------------------------------------------------------------------------------------------------


e  ||-------------9-11-13-14-16-18-13 ~ -------13-13-13-13-13----------------------------------------             
B ||---------------------------------------------------------------------13-11-13 ~ -----------------
G ||-------------------------------------------------------------------------------------------------
D ||-------------------------------------------------------------------------------------------------
A ||-------------------------------------------------------------------------------------------------
E  ||------------------------------------------------------------------------------------------------

e  ||------------------------------------------------------------------------13 ~ -------------------
B ||----13-13-9 ~ ----------------------------------------------11h13--------------------------------
G ||---------------------------------------------------------11h13-----------------------------------
D ||--------------------------------------------------11h13------------------------------------------
A ||------------------------------------------11h13--------------------------------------------------
E  ||------------------------------------------------------------------------------------------------

(The solo isn't 100% correct, but v. Close! If u can get better, mail it to me)







Verse (Again!)

e ||--------------------------------------------------------------------------------------------------          
B ||--------------------------------------------------------------------------------------------------
G ||---6-6-6-6------3-3-3-3-----6-6-6-6------3-3-3-3--------------------------------------------------
D ||---6-6-6-6------3-3-3-3-----6-6-6-6------3-3-3-3--------------------------------------------------                       A ||---4-4-4-4------1-1-1-1-----4-4-4-4------1-1-1-1--------------------------------------------------
E ||-------------------------------------------------------------------------------------------------

e ||-------------------------------------------------------------------------------------------------         
B ||-------------------------------------------------------------------------------------------------
G ||-----6-6-6-6-------8-8-8-8-----------------------------------------------------------------------
D ||-----6-6-6-6-------8-8-8-8----6-6-6-6-----6-6-6-6------------------------------------------------
A ||-----4-4-4-4-------6-6-6-6----6-6-6-6-----6-6-6-6------------------------------------------------
E ||------------------------------4-4-4-4-----4-4-4-4------------------------------------------------


THEN

Chorus:

e ||-----------------------------------------------------------------------------------------------               
B ||-----------------------------------------------------------------------------------------------
G ||---6-6-6-6-----3-3-3-3-------------------------------------------------------------------------
D ||---6-6-6-6-----3-3-3-3---------3-3-3-3------6-6-6-6--------------------------------------------
A ||---4-4-4-4-----1-1-1-1---------3-3-3-3------6-6-6-6--------------------------------------------                          E ||-------------------------------1-1-1-1------4-4-4-4--------------------------------------------

(Repeat this as many times as needed then play the intro…….)

Outro

e  ||--------------------------------------------------------------------------------------------              
B ||---------------------------------------------------------------------------------------------
G ||---6-6-6-6-----3-3-3-3-----6-6-6-6------3-3-3-3----------------------------------------------
D ||---6-6-6-6-----3-3-3-3-----6-6-6-6------3-3-3-3----------------------------------------------
A ||---4-4-4-4-----1-1-1-1-----4-4-4-4------1-1-1-1----------------------------------------------
E  ||-------------------------------------------------------------------------------------------                            

e  ||-------------------------------------------------------------------------------------------          
B ||--------------------------------------------------------------------------------------------
G ||-----6-6-6-6-------8-8-8-8------------------------------------------------------------------
D ||-----6-6-6-6-------8-8-8-8-----6-6-6-6-----6-6-6-6------------------------------------------
A ||-----4-4-4-4-------6-6-6-6-----6-6-6-6-----6-6-6-6------------------------------------------
E ||-------------------------------4-4-4-4-----4-4-4-4-------------------------------------

*You can improvise the outro, but I'm really lazy, so I play it like above!


Enjoy! 

Matt Walker
Comments