Osbourne Ozzy - Dreamer Solo Chords & Tabs

 

Dreamer Solo Chords & Tabs

Osbourne Ozzy Chords & Tabs

Version: 1 Type: Tab 0 ratings
1 star 2 stars 3 stars 4 stars 5 stars
comments

Dreamer Solo Tab

Song: Dreamer
Artist: Ozzy Osbourne
Album: Down To Earth

OK, so here's the exact 'how-to-play' tab of the solo from Dreamer. I just couldn't look on 
those  wrong and sometimes stupid transcriptions of the solo;o) When you try to play this one,
remember to play it with a lot of feeling..... So, enjoy!

Tabbed by: FusionSlash
e-mail: FusionSlash@hotmail.com


bend - b (by two frets)
slide - / (slide between the frets)
vibrato - ~ (vibrate the string a little up and alittle down=)

turn down by 1/2 tone (1 fret)

[ Tab from: http://www.guitartabs.cc/tabs/o/osbourne_ozzy/dreamer_solo_tab.html ]
Eb------------------------------------------------------------------------|
Bb----------------------------------------------8--10b--------------------|
Gb------7--9--9b--7--7/9------------7--9--9/11----------9b-------9b--7~---|
Db---7--------------------9~------7---------------------------------------|
Ab------------------------------------------------------------------------|
Eb------------------------------------------------------------------------|



Eb----------------------------15--17--17b-----------------------------------------------|
Bb-------------15--17--17/19---------------17b------17b-17b----17b---15-----------------|
Gb---(/14)-14------------------------------------------------------------16b----16b--14~|
Db--------------------------------------------------------------------------------------|
Ab--------------------------------------------------------------------------------------|
Eb--------------------------------------------------------------------------------------|

Eb---------------------------------------------|
Bb------------------------------14-15--17b-----|
Gb---------------------12-14-16----------------|
Db------------12-14-16-------------------------|
Ab---12-14-16----------------------------------|
Eb---------------------------------------------|

Wasn't that hard, no?
Comments