Osbourne Ozzy - Diary Of A Madman Chords & Tabs

 

Diary Of A Madman Chords & Tabs

Osbourne Ozzy Chords & Tabs

Version: 1 Type: Tab 3 ratings
1 star 2 stars 3 stars 4 stars 5 stars
comments

Diary Of A Madman Tab

   
Artist: Ozzy Osbourne
Song: Diary of a madman(Album diary of a madman)
Tabbed by: john Leadman




Eb tuning

Intro:
Finger pick. Or if you can't, a pick won't hurt.. Just needs to sound flowing. 
|----------0-------|---------0-------|---------5-------|---------5-------|
|--------4---4-----|-------4---4-----|-------4---4-----|-------3---3-----|
|------6-------6---|-----6-------6---|-----5-------5---|-----4-------4---|
|----7-----------7-|---5-----------5-|---4-----------4-|---3-----------3-|
|--0---------------|-0---------------|-0---------------|-0---------------|
|------------------|-----------------|-----------------|-----------------|


|----------0-------|---------0-------|---------0-------|---------0-------|
|--------2---2-----|-------1---1-----|-----1-----1---1-|-----3-----3---3-|
|------4-------4---|-----4-------4---|---4---4-----4---|---2---2-----2---|
|----2-----------2-|---2-----------2-|-----------------|-----------------|
|--0---------------|-0---------------|-----------------|-----------------|
|------------------|-----------------|-3---------------|-1---------------|


|------------------------0-----|
|------------------0---0-0-0-3-|
|------------1---1---1-------4-|
|------4---4---4---------------|
|----2---2---------------------|
|--0---------------------------|


RIFF A: 2x acoustic 1x distorted
|--------------------------------------|---------------------------------|
|--------------------------------------|---------------------------------|
|------5---4-------2---4---5---4---2---|-----5---4---2---4---5---4-------|
|----2---2---2---2---2---2---2---2---2-|---2---2---2---2---2---2---2---2-|
|--0-----------0-----------------------|-0-------------------------------|
|--------------------------------------|-----------------------------0---|



Distorted...
|--------------------------------------|------------------------|
|--------------------------------------|------------------------|
|------5---4-------2---4---5---4---2---|-----5---4---2---4---5--|
|----2---2---2---2---2---2---2---2---2-|---2---2---2---2---2----|
|--0-----------0-----------------------|-0----------------------|
|--------------------------------------|------------------------|


|---------------------|
|---------------------|
|--------------5-\-4--|
|--2---3---4---5-\-4--|
|--2---3---2---3-\-2--|
|--0---1---2----------|


Acoustic...
RIFF B:
|------0-------------------5------5--|-----0-----------------5------0--|
|--------4-------4---4--------3------|-------4-------4--4-------3------|
|----------6---6-----5--------4------|---------6---6----5-------4------|
|------------5-------4--------3------|-----------5------4-------3------|
|--0---------------------------------|-0-------------------------------|
|------------------------------------|---------------------------------|


Verse 1 with RIFF B:


|-----------------------------------|-----------------|
|-----1-----------1-------1--3--1---|-----3-----0--1--|
|--------4-----4--------2---------2-|---2-----2-------|
|-----------------------------------|-----------------|
|--0--------------------------------|-----------------|
|-----------3--------1-------3------|-1-------3-------|

RIFF B once

Verse 2 with RIFF B:


|-----------------------------------|-----------------------------------|
|-----1-----------1-------1--3--1---|-----3-----0--1---1----1---0-------|
|--------4-----4--------2---------2-|---2-----2----------4--2---0-------|
|-----------------------------------|---------------------------0-------|
|--0--------------------------------|----------------0------------------|
|-----------3--------1-------3------|-1-------3-------------1---3-------|
 

|-----------------------------------|-----------------|
|-----1-----------1-------1--3--1---|-----3-----0--1--|
|--------4-----4--------2---------2-|---2-----2-------|
|-----------------------------------|-----------------|
|--0--------------------------------|-----------------|
|-----------3--------1-------3------|-1-------3-------|
 

|--------------------------------------|------------------------|
|--------------------------------------|------------------------|
|------5---4-------2---4---5---4---2---|-----5---4---2---4---5--|
|----2---2---2---2---2---2---2---2---2-|---2---2---2---2---2----|
|--0-----------0-----------------------|-0----------------------|
|--------------------------------------|------------------------|


|------------------------|-----------------------------------------------|
|------------------------|-----------------------------3----------3------|
|------------------------|--------------------------------0----------0---|
|------------------------|------5---4-------2---4---5----------4---------|
|--3--3h5p3p0------------|----2---2---2---2---2---2----------------------|
|-------------2---2h3p2--|--0-----------0--------------------------------|


|--------------------------------------------------|
|--------------------------------------------------|
|-----------------------------------0------------0-|
|------5---4-------2---4--------2------------2-----|
|----2---2---2---2---2---2---1-----------0---------|
|--0-----------0-----------------------------------|
[ Tab from: http://www.guitartabs.cc/tabs/o/osbourne_ozzy/diary_of_a_madman_tab.html ]
|------------------------------------------5------|
|------------------------------3---------------3--|
|---------------------------------0---------------|
|------5---4-------2---4---5-----------4----------|
|----2---2---2---2---2---2------------------------|
|--0-----------0----------------------------------|

|--------------------------------------------------|
|--------------------------------------------------|
|-----------------------------------0------------0-|
|------5---4-------2---4--------2------------2-----|
|----2---2---2---2---2---2---1-----------0---------|
|--0-----------0-----------------------------------|


Interlude:

|-----------------0----|-----------------0----|-----------------0----|
|------8----8-------8--|------8----8-------8--|------8----8-------8--|
|--------11---11-------|--------11---11-------|--------11---11-------|
|----9-----------------|----9-----------------|----9-----------------|
|----------------------|----------------------|----------------------|
|--0-------------------|--0-------------------|--0-------------------|

|------------------0----|--------------0----|----0-----------0-----|
|--------8----8------8--|------8---8-----8--|------0----0----------|
|-----11---11---11------|----7---7---7------|-11-----11---11---11--|
|--10-------------------|--9----------------|----------------------|
|-----------------------|-------------------|----------------------|
|-----------------------|-------------------|----------------------|

|-----------0---------|------------------0----|----------0-------|
|--8------8---8----8--|--------8----8------8--|------8-----8---8-|
|------11-------11----|-----11---11---11------|----7---7-----7---|
|----9----------------|--10-------------------|--9---------------|
|---------------------|-----------------------|------------------|
|---------------------|-----------------------|------------------|


|-----0-----------0----|----------0--------|--0--------0----------|
|-------0----0---------|-8------8---8----8-|-10-----10---10----10-|
|--11-----11---11---11-|-----11-------11---|-----11---------12----|
|----------------------|---9---------------|----------------------|
|----------------------|-------------------|----------------------|
|----------------------|-------------------|----------------------|

|-----------0---------|--0-------------------|--0--------0--------|
|--8------8---8----8--|-10-----10-12-10-8-7--|--8------8---8----8-|
|------11-------11----|-----11----12-11-9-7--|------11-------11---|
|----9----------------|----------------------|----9---------------|
|---------------------|----------------------|--------------------|
|---------------------|----------------------|--------------------|

|--0--------0----------|-----------0---------|--0-------0----------|
|-10-----10---10----10-|--8------8---8----8--|-10----10---10-------|
|-----11---------12-11-|------11-------11----|----11---------12-11-|
|----------------------|----9----------------|---------------------|
|---------------------|---------------------|---------------------|
|----------------------|---------------------|---------------------|

|-----------0---------|--0-------------------|--0--------0--------|
|--8------8---8----8--|-10-----10-12-10-8-7--|--8------8---8----8-|
|------11-------11----|-----11----12-11-9-7--|------11-------11---|
|----9----------------|----------------------|----9---------------|
|---------------------|----------------------|--------------------|
|---------------------|----------------------|--------------------|

|--0-------0----------|-----------0---------|--0-------0----------|
|-10----10---10----10-|--8------8---8----8--|-10----10---10----10-|
|----11---------12----|------11-------11----|----11---------12-11-|
|---------------------|----9----------------|---------------------|
|---------------------|---------------------|---------------------|
|---------------------|---------------------|---------------------|

|-----------0---------|--0-------------------|--0--------0--------|
|--8------8---8----8--|-10-----10-12-10-8-7--|--8------8---8----8-|
|------11-------11----|-----11----12-11-9-7--|------11-------11---|
|----9----------------|----------------------|----9---------------|
|---------------------|----------------------|--------------------|
|---------------------|----------------------|--------------------|

|--0--------0----------|-----------0--------|--0-------0----------|
|-10-----10---10-------|--8------8---8----8-|-10----10---10----10-|
|-----11---------12-11-|------11-------11---|----11---------12----|
|----------------------|----9---------------|---------------------|
|----------------------|--------------------|---------------------|
|----------------------|--------------------|---------------------|

|-----------0--------|--0-------------------|
|--8------8---8----8-|-10-----10-12-10-8-7--|
|------11-------11---|-----11----12-11-9-7--|
|----9---------------|----------------------|
|--------------------|----------------------|
|--------------------|----------------------|


Distorted...
|----------------------------|
|----------------------------|
|----------------------------|
|----------------------------|
|--3--3h5p3p0----------------|
|--------------2---2h3p2--0--|


Comments