Osbourne Ozzy - Dee Chords & Tabs

 

Dee Chords & Tabs

Osbourne Ozzy Chords & Tabs

Version: 3 Type: Tab 2 ratings
1 star 2 stars 3 stars 4 stars 5 stars
comments

Dee Tab

#----------------------------------PLEASE NOTE-----------------------------#
#This file is the author's own work and represents their interpretation of #
#the song. You may only use this file for private study, scholarship, or   #
#research.                                                                 #
#--------------------------------------------------------------------------#

Song: Dee
Artist: Randy Rhoads
Album: Blizzard Of Ozz
Date: 1981
Tabber: IronRhoads
Explanation: Dee is one of Randy Rhoads' greatest guitar pieces, in my mind. It is fast
and will take some experience in finger picking. Don't try to play it with out listening
to the song, it wont work. This is the best transcription out there, believe me.


		     Harm.
E--7--3h5-5---7--5---x7x--|--7-----------7-----10-----------10------------------12--12--|
B--------------------x7x--|--------7--------7---------8---------8-----------10----------|
G--------------------x7x--|-----7-----7------------7-----7---------------9--------------|
D--5-------------0---x7x--|--9-----------------9-------------------9/11-----------------|
A-------------------------|-------------------------------------------------------------|
E-------------------------|-------------------------------------------------------------|
[ Tab from: http://www.guitartabs.cc/tabs/o/osbourne_ozzy/dee_tab_ver_3.html ]
E--7-----------7--------------------------0-----0----------------------0----2h3p2p0------
B------7h8-8------10---8-----8--7--5--3------0-----5p3----3--3-----3---------------------
G-------------------------6-----------------------------6--------2---2---2---------------
D------------------------------------------------------------4---------------------------
A--10-------------9----7--------5--4--2------------0-------------------------------------
E-----------------------------------------2----------------------------------------------
							       Harm.
E--2------2---------0-2-3-----------3p2-2p0----0-------------x12x-----------------------|
B-------0--------0-------------0-------------3----2-----3/---x12x-----------------------|
G-----2--------2-------------0---0-------------------0-------x12x-----------------------|
D--1-----------------------2---------------------------------x12x-----------------------|
A------------2------------------------------------0-------------------------------------|
E-------------------3-2-0---------------------------------------------------------------|

E---------------------------2--3--5h7p5---------0----2--3--5--7h9p7----------------------
B---------------------------3--5---------3----3------3--5--7---------2---3---------------
G--2h4p2p0----------------------------------0--------------------------0-----------------
D----------4p2p0----------------------------------0--------------------------------------
A-----------------4p2p0--0---------------2---------------------------0-------------------
E----------------------------------------------------------------------------------------
										  Harm.
E--5p3--3/2--2p0--2p0----0--------0---------0---------------------------7p5---5p3---x7x-|
B----------------------3---3---3-----2p0--3----2-----3---3--------------8p5---------x7x-|
G-------------------------------------------------0---------2-----------------------x7x-|
D--0-----------------------------------------------------------0--------------------x7x-|
A-----------------4------------2-----2---------0------------------2p0---------4---------|
E--------------------------------------------------------2--------------0---------------|


					ENJOY!
Comments