Osbourne Ozzy - Dee Chords & Tabs

 

Dee Chords & Tabs

Osbourne Ozzy Chords & Tabs

Version: 2 Type: Tab 1 rating
1 star 2 stars 3 stars 4 stars 5 stars
comments

Dee Tab

#Esta Clasica cancion por Randy Rhodes , es dificil , pero no imposible de tocar,
 Con un poco de practica , en 3 semanas la sacas , tarde como 2 meses en sacar la 
 tablatura , que disfrutes esta cancion en honor al gran guitarrista difunto de 
 Ozzy Osbourne.

Tabbed by Ricardo Elnejem
E mail . relnejem@yahoo.com

E|--7-----3--5--7--5--|--------------|--7--------7--10--------10--|----
B|-----3--------------|--------------|-----7------------8---------|----
G|--------------------|--------------|--------7------------7------|----
D|--5--------------0--|--------------|--9------------9------------|--9/
A|--------------------|-----------------|----------------------------|----
E|--------------------|-----------------|----------------------------|----



E|------12----12p9--12----|---7----------7--------|--------------------|--
B|------------------------|---------7h8-----10----|--8-----8--7--5--3--|--
G|------------------------|------7----------------|-----6--------------|--
D|--11--11----------------|-----------------------|--------------------|--
A|------------------------|--10--------------9----|--7--------5--4--2--|--
E|------------------------|-----------------------|--------------------|--



E|--0-----0----------------------------|--7/8\7--3--2-----------2----|--0--
B|-----0-----5p3-----3--3-----------3--|--5/7\5--5-----0-----0-------|-----
G|----------------6--------2-----2-----|------------------2----------|-----
D|----------------------------4--------|------------1----------------|-----
A|-----------0----------0--------------|-----------------------------|-----
E|--3----------------------------------|-----------------------------|--3--


[ Tab from: http://www.guitartabs.cc/tabs/o/osbourne_ozzy/dee_tab_ver_2.html ]
E|--2--3-------3--|--3p2--2p0--2p0-----0--------|----------|-----------
B|----------------|-----------------3-----3--2--|----------|-----------
G|--------0-------|-----------------------------|----------|--2h4p2p0--
D|----------------|-----------------------------|----------|-----------
A|----------------|--------------------------0--|--------------|-----------
E|--2--0----------|--0---------4----------------|--------------|-----------



E|-----------------------|--2----3----5h7p5--------------|--2----3----7h8p
B|-----------------------|--3----5-----------3-----3-----|--3----5--------
G|-----------------------|----------------------0--------|----------------
D|--2h4p2p0-----------0--|----------------------------0--|----------------
A|-----------2h4p2p0-----|-------------------2-----------|----------------
E|-----------------------|-------------------------------|----------------



E|--7--------------|--5--3--2--3--2p0--2p0--|--2p0-----0------------|-------
B|-----2--------2--|------------------------|-------3-----3p2--3h5--|--3p2--
G|--------0--------|------------------------|-----------------------|-------
D|-----------2-----|--0---------------------|-----------------------|-------
A|-----0-----------|------------------------|--4--------------------|--2----
E|-----------------|------------------------|-----------------------|-------



E|---------------------|---------------------|--5----3----3----2------
B|--3--5--2h3p2-----2--|--3------------------|--7----5----5----3------
G|---------------4-----|-----2---------------|------------------------
D|---------------------|--------0------------|------------------------
A|---------------------|---------------2--0--|---------------------------
E|---------------------|--2------------------|--0---------4--------------

Comments