Osbourne Ozzy - Crazy Train Live Chords & Tabs

 

Crazy Train Live Chords & Tabs

Osbourne Ozzy Chords & Tabs

Version: 1 Type: Tab 5 ratings
1 star 2 stars 3 stars 4 stars 5 stars
comments

Crazy Train Live Tab

   
#----------------------------------PLEASE NOTE--------------------------------#
#This file is the author's own work and represents their interpretation of the#
#song. You may only use this file for private study, scholarship, or research.#
#-----------------------------------------------------------------------------#



Artist: Ozzy
Album: Live At Budokan
Title: Crazy Train

From: www.BlackLabelSociety.net

Tabbed By: WyldeChyld

Tuning: D G C F A D




|-----------------------------------|---------------------------|
|-----------------------------------|---------------------------|
|-11--11----2--2------------------6^|-2-2-----------------------|
|-11--11----2--2---2--2---4--4------|-2-2--2-2--4-4-------------|
|-9---9-----0--0---2--2---4--4------|-0-0--2-2--4-4---3/17\3----|
|------------------0--0---2--2------|------0-0--2-2-------------|



|----------------|----------------------------------------------|
|----------------|------------------17^-------------------------|
|-2-2------------|-2-2---------16^--------11^-11^-11^-11^-11^---|
|-2-2--2-2--4-4--|-2-2--2-2-------------------------------------|
|-0-0--2-2--4-4--|-0-0--2-2-------------------------------------|
|------0-0--2-2--|------0-0-------------------------------------|


Flip switch
|--|------------|------------------------------------|----0------|
|--|------------|------------------------------------|-3--0------|
|-4|------------|------------------------------------|-2--1------|
|--|------------|------------------------------------|-0--2------|
|--|------------|-----4---5---4-----2--------2-------|----2------|
|--|-4^--4/15\4-|-2-2---2---2---2------5-4-5----5--3^|-----------|


The 0's are slightly muted
|---------------7----------------------------------------------|
|------5--------5--------3---------2---------------------------|
|------6--------4--------2---------2---------------------------|
|------7--------6--------4---------2---------------------------|
|-0-0-----0-0-------0-0------------0---------------------------|
|-----------------------------2h4------------------------------|


|--------------------------------------|------------------------|
|------2---------5----------3-------2--|--4p2p0-----------------|
|------2---------4----------2-------2--|---------4p2p0----------|
|------2---------6----------4-------2--|----------------4p2p0---|
|-0-0-----0-0-0-------0-0-----------0--|------------------------|
|------------------------------2h4-----|------------------------|



|--------------------5---------|----------------------5----------|
|-----5-------5------3---------|-----2------5---------3----------|
|-----6-------4------2--2----2-|-----2------4---------2----------|
|-----7-------6------4--2----2-|-----2------6---------4----------|
|-0-0----0-0-----0-0----2h4--0-|-0-0----0-0----0-0-0-------------|
|------------------------------|-------------------------0-------|


Fill 1                 Fill 2  Fill 3
|-9-/10--10/12\10/9---|-----|------------------------------------|
|-10/12--12/14\12/10--|-----|------------------------------------|
|---------------------|--6^-|------------------------------------|
|---------------------|-----|------------------------------------|
|---------------------|-----|------------------------------------|
|---------------------|-----|---3^-------------------------------|


Mental wounds not.......
|------------------------|--------------------------------------|
|------------------------|------------------5-------------------|
|--------------7---------|-----------2------4-------------------|
|-4-----4------7---------|-4-----4---2------2-------------------|
|-4-----4------5-----16^-|-4-----4---0------x-------------------|
|-2--0--2---0------------|-2--0--2-------0--0-------------------|

|-----2----2----------------------------------------------------------|
|---2---2----5p2-3p2----2---------------------------------------------|
|-4-------------------5----5p2-4p2------------------------------------|
|------------------------------------4p2--4p2--4p3p2h4p2----2h4h2h4h2-|
|--------------------------------------------------------5------------|
|---------------------------------------------------------------------|


                                Fill
|-----------------------------|-5h6h5h6---7h8h7h8--9h10h9h10-----|
|-------5-------5--------3----|----------------------------------|
|-------6-------4--------2----|----------------------------------|
|-------7-------6--------4----|----------------------------------|
|--0-0-----0-0------0-0-------|----------------------------------|
|---------------------------0-|----------------------------------|

[ Tab from: http://www.guitartabs.cc/tabs/o/osbourne_ozzy/crazy_train_live_tab.html ]
Im goin off the rails on a.......
|-----------|-------------|-------------|-----------|-----------|------------|
|-----------|-------------|-------------|-----------|-----------|------------|
|-12p9p12p9-|-12p10p13p10-|-14p11p14p11-|15p1215p12-|16p1316p13-|-17p1417p14-|
|-----------|-------------|-------------|-----------|-----------|------------|
|-----------|-------------|-------------|-----------|-----------|------------|
|-----------|-------------|-------------|-----------|-----------|------------|

SOLO!!  + = tap
    x-5 for each
|--+-------------|----------------------------------------------|
|--14--10--7--10-|--15--10--7--10-------------------------------|
|----------------|----------------------------------------------|
|----------------|----------------------------------------------|
|----------------|----------------------------------------------|
|----------------|----------------------------------------------|

|--------------------------------------------------------------|
|-9h12h9h12h19h12h9h12h9h12h9/7h10h7h10h7h10h7------10---------|
|------------------------------------------------9^----9^------|
|--------------------------------------------------------------|
|--------------------------------------------------------------|
|--------------------------------------------------------------|



|-17-16-14------14-16-17-17^-|-14-17-14---------------------------|
|----------17^---------------|----------------14------------------|
|----------------------------|------------17-------17-15h14-15h14-|
|----------------------------|------------------------------------|
|----------------------------|------------------------------------|
|----------------------------|------------------------------------|



|----------------------------------------|----------------------|
|-----------------------------17---------|--------14h17---------|
|-17h14--16h14-----------16^-----16^--14-|-14h16----------------|
|---------------16h14--------------------|----------------------|
|----------------------------------------|----------------------|
|----------------------------------------|----------------------|



|-14h17h14h17h14h17h14h17h14h16h19h16h19h17h21h17h21h17h21h----|
|--------------------------------------------------------------|
|--------------------------------------------------------------|
|--------------------------------------------------------------|
|--------------------------------------------------------------|
|--------------------------------------------------------------|


|-17h16h19h16h19h16h19h16h19h16h10h14h15h14h15h14h15h14--------|
|--------------------------------------------------------------|
|--------------------------------------------------------------|
|--------------------------------------------------------------|
|--------------------------------------------------------------|
|--------------------------------------------------------------|



|-----17--------------|--------------------------------------------|
|-17^----17^-17-14----|-14----14----------14-----------14----------|
|------------------16-|----16----16-14-------16-14--------16-14----|
|---------------------|----------------16-----------16----------16-|
|---------------------|--------------------------------------------|
|---------------------|--------------------------------------------|



|---------------------------|----------------------------14-17h16h14-|
|---------------------------|-------------------------17-------------|
|-13h14h13--16--14h13----16-|----------------------17----------------|
|---------------------16----|-------------14-16/18-------------------|
|---------------------------|-------14-16----------------------------|
|---------------------------|-14-16----------------------------------|

|--14h17-14h17--19^--19^---------------------------------------|
|--------------------------------------------------------------|
|--------------------------------------------------------------|
|--------------------------------------------------------------|
|--------------------------------------------------------------|
|--------------------------------------------------------------|


 Ending Fill 1
|--------------------------------------------------------------|
|-17p14----14--------------------------------------------------|
|-------17----17-16p14--16p14----------------------------------|
|------------------------------16p14---------------------------|
|------------------------------------16p14-15p14----14---------|
|------------------------------------------------17------------|


Ending Fill 2
|----------------------------------------------------------------------|
|-13p10----14p11----15p12----16p13----17p14----18p15----19p16----20p17-|
|-------11-------12-------13-------14-------15-------16-------17-------|
|----------------------------------------------------------------------|
|----------------------------------------------------------------------|
|----------------------------------------------------------------------|
Im goin off the..... (not sure about this)
|----------------------------------------------------------------------|
|--------------------------------------17-15-14------------------------|
|-------------------------------14---------------17-15-14--------------|
|-------------------14-17-19-17----17---------------------16p14--------|
|----------14-15-17---------------------------------------------14^----|
|-14-15-17----------------------------------------------------------19-|

Comments