Osbourne Ozzy - Back On Earth Chords & Tabs

 

Back On Earth Chords & Tabs

Osbourne Ozzy Chords & Tabs

Version: 1 Type: Bass Tab 0 ratings
1 star 2 stars 3 stars 4 stars 5 stars
comments

Back On Earth Bass Tab

Back on Earth

As perfomed in the "Ozzman Cometh" album
Bassist:
Geezer Butler


	Geezer improvises a lot in this song so it's hard to tab what
he does. What I did is getting the basic riffs, the stuff he does you
can get by yourself. Listen to the CD to get it right.



 ø
g|---------------------------|-------------------|-------------------|-
d|*-------------------------*|-------------------|--------------------|
a|*-------------------------*|-------------------|--------------------|
e|--1--0-1-3--1-3-4--3-4-5---|--6-5-6-5-6-5-6-5--|-5-3-2-1--5-3-2-1---|
[ Tab from: http://www.guitartabs.cc/tabs/o/osbourne_ozzy/back_on_earth_btab.html ]
	     1			     2
g|----------|-----------------------|----------------|----------------|
d|----------|*---------------------*|----------------|*--------------*|
a|----------|*-------3---------3---*|-----------5-5--|*-1-3-5--1-3-5-*|
e|--1-4-5---|--0--2------0--2-------|--5-3-2-1-------|----------------|
				    ø

g|-------------------------|--------------------|---------------------|
d|*-----------------------*|--------------------|---------------------|
a|*-------------------5---*|--------3--------3--|----------1-3-4-5----|
e|-5-3-2-1--5-3-2-1--------|--0--2-----0--2-----|--1-3-4-5------------|


g|-------------------|--------------------|
d|-------------------|*------------------*|
a|-6-5-6-5-6-5-6-5---|*------------------*|
e|-------------------|--5-3-2-1--5-3-2-1--|


the simbol "ø" is a coda, ok?

That's it!

Any questions, suggestions, comments or corrections mail to:

	deemuhn@hotmail.com


MEY

Comments