Osbourne Kelly - Papa Dont Preach Chords & Tabs

 

Papa Dont Preach Chords & Tabs

Osbourne Kelly Chords & Tabs

Version: 1 Type: Tab 0 ratings
1 star 2 stars 3 stars 4 stars 5 stars
comments

Papa Dont Preach Tab

Kelly Osborne
Papa Don't Preach
Hi guys! I am a 14 year female guitar playa from NC and I haven't been
able to find this tab ne where so I'll just do it myself aight?
If you have any questions or comments just e-mail me at 
maddy_sports@yahoo.com 
Intro
e--------------------------------------------------------------------
b--------------------------------------------------------------------
g--------------------------------------------------------------------
d--------------------------------------------------------------------
a--------------------------------------------------------------------
E--99-11/11-13/13-15/15-13/13-11/11-9/9-8/8----Repeat----------------

Verses
e--------------------------------------------------------------------
b--------------------------------------------------------------------
g--------------------------------------------------------------------
d--10--10-8--8-6--6--5-5---------------------------------------------
a--8---8--6--6-4--4--3-3---------------------------------------------
E--------------------------------------------------------------------
[ Tab from: http://www.guitartabs.cc/tabs/o/osbourne_kelly/papa_dont_preach_tab.html ]
Pre Chorus
e--------------------------------------------------------------------
b--------------------------------------------------------------------
g--------------------------------------------------------------------
d---6-6-6-6-6-5-5-5-5-5-6-6-6-6-6-5-5-5-5-5-6-6-6-6-6-5-5-5-5-5-10---
a---4-4-4-4-4-3-3-3-3-3-4-4-4-4-4-3-3-3-3-3-4-4-4-4-4-3-3-3-3-3-8----
E--------------------------------------------------------------------

Chorus
e--------------------------------------------------------------------
b--------------------------------------------------------------------
g-10-8-6-8-8-8-8-8-10-8-6-8-8-8-8-8-10--8--10-8-6-8-8-8-8-8---------------------------------------
d--8-6-4-6-6-6-6-6--8-6-4-6-6-6-6-6--8--6---8-6-4-6-6-6-6-6-----------------------------------
a--------------------------------------------------------------------
E--------------------------------------------------------------------

Song structure
Intro x 2
verse x 3
prechorus x 1
chorus x 1
verse x 1
prechorus x 1
verse x 1
solo
prechorus x 1
chorus x 1
verse x 3

                                                                                                                                                      --------
Comments