Orgy - Stitches Chords & Tabs

 

Stitches Chords & Tabs

Orgy Chords & Tabs

Version: 1 Type: Tab 0 ratings
1 star 2 stars 3 stars 4 stars 5 stars
comments

Stitches Tab

Orgy
Song:Stitches
Transcribed by:David Robinson

Orgy uses one 7 string guitar and one 6 string but if u tune 
half step and drop D then you can still get a extremely 
close sound to orgy.So that is the tuning for this song.

For the verse just Amir Derakh (6 string) uses his litte
synthesizer pedal and that is the only guitar so i didnt
tab the verses cuz its pointless.
[ Tab from: http://www.guitartabs.cc/tabs/o/orgy/stitches_tab.html ]
Chorus:          (Amir Derakh)
D#------------------------------------------------------
A#------------------------------------------------------
F#------------------------------------------------------
C#-4-4-4-4----------------------------------------------
G#-2-2-2-2--5-5-5-5--1-1-1-1--0-0-0-0-------------------
C#----------5-5-5-5--1-1-1-1--0-0-0-0-------------------
                 (Ryan Shuck)
D#------------------------------------------------------
A#----------15------------------------------------------
F#-16-14--------12-11-------16-14------14-12-11---------
C#-------12-----------------------12-7------------------
G#------------------------------------------------------
C#------------------------------------------------------

Intrelude:
D#------------------------------------------------------
A#------------------------------------------------------
F#------------------------------------------------------
C#-------------------7-7-7-7-7--6-6-6-------------------
G#-4-4-4-4-4--5-5-5--5-5-5-5-5--4-4-4-------------------
C#-4-4-4-4-4--5-5-5-------------------------------------

Ending is the exact same as the chorus
Comments