Orgy - Stitches Chords & Tabs

 

Stitches Chords & Tabs

Orgy Chords & Tabs

Version: 1 Type: Bass Tab 0 ratings
1 star 2 stars 3 stars 4 stars 5 stars
comments

Stitches Bass Tab

   
#----------------------------------PLEASE NOTE---------------------------------#
#This file is the author's own work and represents their interpretation of the #
#song. You may only use this file for private study, scholarship, or research. #
#------------------------------------------------------------------------------#
#------------Created with Taborama Tab Creator-----www.taborama.com------------#
#------------------------------------------------------------------------------#

Title: Stitches
Artist: Orgy
Album: Candyass

Instrument: 5 String Bass

Tabbed by: Kyle (kbartz1@juno.com)

Tuning: Standard (B E A D G)




Intro

G|-------------------------------------------------------------------||
D|-------------------------------------------------------------------||
A|-------------------------------------------------------------------||
E|----------0----0-----------3-3--3----------------------------------||
B|0-0--7-7---5-5--3-3--3-3--3------2-2--2-0-0------------------------||


Verse (Played Immediately After Intro)
[ Tab from: http://www.guitartabs.cc/tabs/o/orgy/stitches_btab.html ]
G|-------------------------------------------------------------------||
D|-------------------------------------------------------------------||
A|-------------------------------------------------------------------||
E|-----0-----0-----0-----0-----0-------------------------------------||
B|0-0---7-7---8-8---5-5---4-4---2-2--0-0--0-0------------------------||


Chorus

G|---------------------------------||
D|---------------------------------||
A|---------------------------------||
E|---------------------------------||
B|-0000--07777--73333--32222-------|| x2


Verse

G|-------------------------------------------------------------------||
D|-------------------------------------------------------------------||
A|-------------------------------------------------------------------||
E|----------0----0-----------3-3--3----------------------------------||
B|0-0--7-7---5-5--3-3--3-3--3------2-2--2-0-0------------------------||



G|-------------------------------------------------------------------||
D|-------------------------------------------------------------------||
A|-------------------------------------------------------------------||
E|-----0-----0-----0-----0-----0-------------------------------------||
B|0-0---7-7---8-8---5-5---4-4---2-2--0-0--0-0------------------------||

Comments