Orgy - Inside My Head Chords & Tabs

 

Inside My Head Chords & Tabs

Orgy Chords & Tabs

Version: 1 Type: Bass Tab 0 ratings
1 star 2 stars 3 stars 4 stars 5 stars
comments

Inside My Head Bass Tab

ORGY
INSIDE MY HEAD
PUNK STATIK PARANOIA

Tabbed by: Only Bass!!!
"mexican_bassist@yahoo.com"


This is my first Tab! 
I love this song, it's great!!!

Tuned: Dropped D

Listen to the song to hear rithm and times.
"NOTE: PAIGE HALEY USES, LIKE OTHER SONGS, SPECIAL EFFECTS SOUNDS"


VERSE 1 (0:08 to 0:53)

G|------------------------------------------------------|
D|------------------------------------------------------|
A|------------------------5-5-4-3--3--3--3-5-0--0--0--0-|
D|-0-2--2--2--2-0-2--2--2-------------------------------|


CHORUS 1 (0:53 to 1:07)

G|-----------------------------|
D|-----------------------------|
A|---------------3-0----3------|
D|-0-2----0-2-------------5----|


VERSE 2 (1:08 to 1:51)
[ Tab from: http://www.guitartabs.cc/tabs/o/orgy/inside_my_head_btab.html ]
G|------------------------------------------------------|
D|------------------------------------------------------|
A|------------------------5-5-4-3--3--3--3-5-0--0--0--0-|
D|-0-2--2--2--2-0-2--2--2-------------------------------|


CHORUS 2 (1:52 to 2:22)

G|-----------------------------|
D|-----------------------------|
A|---------------3-0----3------|
D|-0-2----0-2-------------5----|


BRIDGE (2:25 to 2:54)

G|------------------------------------------------------|
D|------------------------------------------------------|
A|------------------------5-5-4-3--3--3--3-5-0--0--0--0-|
D|-0-2--2--2--2-0-2--2--2-------------------------------|


CHORUS 3 (2:55 to 3:38)

G|-----------------------------|
D|-----------------------------|
A|---------------3-0----3------|
D|-0-2----0-2-------------5----|


OUTRO (3:39 to 4:16)

G|------------------------------------------------------|
D|------------------------------------------------------|
A|------------------------5-5-4-3--3--3--3-5-0--0--0--0-|
D|-0-2--2--2--2-0-2--2--2-------------------------------|


If someone knows "Static-X/Control it" bass tabs, send to me plz.
Comments