Orgy - Fiction Chords & Tabs

 

Fiction Chords & Tabs

Orgy Chords & Tabs

Version: 2 Type: Tab 0 ratings
1 star 2 stars 3 stars 4 stars 5 stars
comments

Fiction Tab

   
Orgy Fiction(Dreams In Digital).
Tabbed by Ben DigitalVaporX@webtv.net.
  
Fiction (Dreams In Digital) 
Tuning- C# G# C# F# A# D# 
Intro - #1-3                    #4 
|--------------------------|-----------------------| 
|--------------------------|-----------------------| 
|--------------------------|--4-4-4-4-4-4----------| 
|---------------5--5--5----|-----------------------| 
|4-4-4--4-4-4--4--4--4--4--|-----------------------| 
|--------------------------|66-6-6-6-5-5-55--------| 
GTR. 2 INTRO 
|---------------------------------------| 
|--------------------14-14-14--14-------| 
|----11-----11-12/11--------------9/11--| 
|--------------------11-11-11--11-------| 
|----9------9--10/9---------------7/9---| 
|9-11---9-11----------------------------| 
Main- GTR.1=intro riff 
GTR.2-QUIET, SUSTAINED DIST., DEEP CHORUS, DELAY, WHAMMY, and a FAST PHASER or RING MODULATOR 
D#|15~~~-15-------------------------------| 
A#|--------13-14~~------------------------| 
Pre-Chorus 
|--------------------------------------------------| 
|--------------------------------------------------| 
|--------------------------------------------------| 
|--------------------------------------------------| 
|44444-44-44-44/5-44444-44-44-44/5-----------------| 
|44444-44-44-44/5-44444-44-44-44/5-----------------| 
Chorus                              End of Chorus 
|GUITAR-2)-2-4-5(2x)-12-10---------|14~~~~---------| 
|--------------------------10(2x)--|10~~~~---------| 
|----------------------------------|---------------| 
|GUITAR-1)-------------------------|---------------| 
|4-4-4--0-0-7-7/9--9-9--2-2--9-9---|---------------| 
|4-4-4--0-0-7-7/9--9-9--2-2--9-9---|---------------| 
Solo 
|------14-------16-------17-------19----17----16---| 
|14-14----14-14----14-14----14-14----14----14----14| 
|--------------------------------------------------| 
|--------------------------------------------------| 
|--------------------------------------------------| 
|--------------------------------------------------| 
Solo ending #1 (cont.) 
|-117----16----14----14----12----16------12-14-----| 
|----14----14----14----12----12-------12-----------| 
|--------------------------------------------------| 
|--------------------------------------------------| 
|--------------------------------------------------| 
|--------------------------------------------------| 
More Soloing 
|------14-------16-------17-------19----17----16---| 
|14-14----14-14----14-14----14-14----14----14----14| 
|--------------------------------------------------| 
|--------------------------------------------------| 
|--------------------------------------------------| 
|--------------------------------------------------| 
Solo ending #2 (cont.) 
|-17----16----14----14-----------------------------| 
|----14----14----14----14-14-15-14-15-14-!5-14-----| 
|--------------------------------------------15-12~| 
|--------------------------------------------------| 
|--------------------------------------------------| 
|--------------------------------------------------| 

The Outro is the chorus played 2 1/2 times with chorus ender. 
To obtain most of the similar sounds, try using the IBANEZ TONELOK series pedals, they've used all 8 of them in the song. This should be more around 99% close to the actual version of this song. I've been learning it for a few weeks now. 
:: Ultimate Guitar Archive :: 
http://www.ultimate-guitar.com 


[ Tab from: http://www.guitartabs.cc/tabs/o/orgy/fiction_tab_ver_2.html ]
Comments