Orgy - Fiction Dreams In Digital Chords & Tabs

 

Fiction Dreams In Digital Chords & Tabs

Orgy Chords & Tabs

Version: 2 Type: Bass Tab

Fiction Dreams In Digital Bass Tab

FICTION (DREAMS IN DIGITAL)
Orgy

Taken from the Elementree/Reprise album Vapor Transmission (2000)

Transcribed by: Damian Pamminger (TwitcheD_85@hotmail.com)

Tune down 1 1/2 steps (low to high: C#, F#, ,B, E)

I know Orgy uses the 5-string bass but some of their songs don't require one. This tuning
seems to work for all of those songs nicely...so without further adue, here's the 4-string
version.

Fig. 1
|----------------------------------------------------------------------|
|----------------------------------------------------------------------|
|----------------------------------------------------------------------|
|-4-4-4-4-4-4-4-4-7-7-7-7-7-7-7-7-4-4-4-4-4-4-4-4-0-0-0-0-0-0-0-0------|
[ Tab from: http://www.guitartabs.cc/tabs/o/orgy/fiction_dreams_in_digital_btab_ver_2.html ]
|----------------------------------------------------------------------|
|----------------------------------------------------------------------|
|----------------------------------------------------------------------|
|-4-4-4-4-4-4-4-4-7-7-7-7-7-7-7-7-6-6-6-6-6-6-6-6-5-5-5-5-5-5-5-5------|

Fig. 2
|-------------------------------------|
| ------6------6-----6------6---------|
|-------------------------------------|
|-4-4-4---4------4-----4-4----4-7-----|

Fig. 3
|---------------------------------------|
|---------------------------------------|
|-------7-7-7--------4-4-4-----4-4------|
|-4-4-4-------7-7-7--------2-2----------|

Fill 1
|-------------------------------------|
|-------------------------------------|
|-----------------------7\-6----------|
|-4------------4----------------7---6-|

Fill 2
|------------|
|------------|
|------------|
|-4----------|