Orgy - Fiction Chords & Tabs

 

Fiction Chords & Tabs

Orgy Chords & Tabs

Version: 2 Type: Bass Tab 0 ratings
1 star 2 stars 3 stars 4 stars 5 stars
comments

Fiction Bass Tab

Bass Tablature

Band: Orgy
Song: Fiction
Track: 05
Album: Vapor Transmission
Tabbed By: Tyler Nance (killpeople@netzero.net)
:::Proud member of The Bass Tabbing Army:::
Help on chorus line by unknown (suckerface146@aol.com)

This song was tabbed on 11/18/2000.

Tuning: Standard Five String (BEADG)

Intro/Verse (clean)
Play several times
G|---------------------------------------------------------------------------
D|---------------------------------------------------------------------------
A|---------------------------------------------------------------------------
E|---------------------------------------------------------------------------
B|--4-4-4-4-4-4-4-4-7-7-7-7-7-7-7-7-4-4-4-4-4-4-4-4-2-2-2-2-2-2-2-2-4-4-4-4-4-4-4-4-7-7-7-7-7-7-7-7-3-3-3-3-3-3-3-3-1-1-1-1-1-1-1-1-----------------------

Pre-Chorus
Clean Tone
G|----------------------------------
D|----------------------------------
A|----------------------------------
E|----------------------------------
B|--4--4--4--4--4-4--4--4--4--4-1/4-
[ Tab from: http://www.guitartabs.cc/tabs/o/orgy/fiction_btab_ver_2.html ]
Chorus
Use Distortion
G|--------------------------------
D|--------------------------------
A|--------------------------------
E|--------2-2-2-4-4-4-2-2-2-----2-
B|--2-2-2-------------------2-2---


Bridge After First Chorus (clean tone)
Play Once 
G|-------------------
D|-------------------
A|-------------------
E|--------6-5--3-2-1-
B|--7----------------

Outro by Audrina (JimmyUrine@bigfoot.com)
Clean tone, and play quietly
G|-------------------------
D|-------------------------
A|------4------------------
E|---------4---6------6----
B|--6--------------4-----6-


Tablature Explaination:
 ~ = Hold note
 h = Hammer on, quick progression
 p = Pause, do not let note ring
 / = Slide up fretboard
 \ = Slide down fretboard
 ( ) = These are use to show notes to slide up or down to
 [ ] = only play the note(s) encased by these the first time you play the line 

If you hate trendy stuff, check out my website http://www.rd5k.com, I update my tab archive more often then The Bass Tab Archive does, we also have alternate versions of tabs, also most of the time my tabs are correct.
Comments