Orgy - Eva Chords & Tabs

 

Eva Chords & Tabs

Orgy Chords & Tabs

Version: 2 Type: Bass Tab 0 ratings
1 star 2 stars 3 stars 4 stars 5 stars
comments

Eva Bass Tab

Bass Tablature

Band: Orgy
Song: Eva
Track: 06
Album: Vapor Transmission
Tabbed By: Tyler Nance (killpeople@netzero.net)
This song was tabbed on 01/01/2001.
 
Use pick and clean tone on all parts

Intro/Verse
G|-----------------------------
D|-----------------------------
A|-----7------5------3------1--
E|-----------------------------
B|--7-7--7\5-5--0-3-3--0-1-1---

Pre-Chorus
This is the part played after the verse/intro is played twice during the intro and other parts of the song

G|----------------------------------------------
D|----------5----7--8--9----7---5---------------
A|-----7------------------------------3------1--
E|-------5-5-/7-7-/8-/9--7-7\5-5----------------
B|--7-7--------------------------0-3-3--0-1-1---

Chorus
G|---------------------------------------------------------------------------
D|---------------------------------------------------------------------------
A|---------------------------------------------------------------------------
E|---------------------------------------------------------------------------
B|[1/]5-5-5-5-3-3-7-7-5-5-5-5-3-3-7-7-5-5-5-5-3-3-7-7-5-5-5-5-3-3-7-7-5-5-4-6

Interlude Thingy

This comes in after the second chorus when Jay sings "ahhhh now there's nothing left but time/know that I'm following you/ Eva's always on my mind and it makes me wonder"
[ Tab from: http://www.guitartabs.cc/tabs/o/orgy/eva_btab_ver_2.html ]
G|-----------------------------------------------------------------
D|-----------------------------------------------------------------
A|-----------------------------------------------------------------
E|-----------------------------------------------------------------
B|--7-7-7-7-7-7-7-7-5-5-5-5-5-5-5-5-9-9-9-9-9-9-9-9-5-5-5-5-6-5-4--

Outro 1
Play Chorus once then this
G|-----------------------------------------------------
D|-----------------------------------------------------
A|-----------------------------------------------------
E|-----------------------------------------------------
B|--5-5-5-5-3-4-3-5-5-5-5-3-3-7-7-5-5-5-5-3-3-7-7-4-6--

Then Play this
G|---------------------------------------------------
D|---------------------------------------------------
A|---------------------------------------------------
E|---------------------------------------------------
B|--5-5-5-5-3/4-3/4-3/4-3/4-4-6-5-5-5-5-3-3-7-7-4-6--

Absolute Outro
Play Intro/Verse line

Tablature Explaination:
 ~ = Hold note
 h = Hammer on, quick progression
 p = Pause, do not let note ring
 / = Slide up fretboard
 \ = Slide down fretboard
 ( ) = These are use to show notes to slide up or down to
 [ ] = only play the note(s) encased by these the first time you play the line 
 (**) = Play The Harmonic Of The Notes Between These, In other words don't press the frets hard, just lightly touch the strings above the correct frets

If you hate trendy stuff, check out my website http://www.rd5k.com, I update my tab archive more often then The Bass Tab Archive does, we also have alternate versions of tabs, also most of the time my tabs are correct.
Comments