Orgy - Dissention Chords & Tabs

 

Dissention Chords & Tabs

Orgy Chords & Tabs

Version: 2 Type: Tab 0 ratings
1 star 2 stars 3 stars 4 stars 5 stars
comments

Dissention Tab

   
SONG: Dessetion
BAND: Orgy
ALBUM: Candyass
Transcribed by: Nick "Head Wannabe"Di Claudio
NOTE: I'm pretty sure Ryan Shuck uses a 7 string tuned down 1 step.
                      Amir Derakh uses a 6 string tuned down 1 step.

Intro/Main Riff/Chorus(just about slash anything huh?)
"you couldn't let go..."
a||-----------------------------------|| Gtr1 (Amir)
F||-----------------------------------||
C||-----------------------------------||
G||--5-5---5-5-4-4-7-7-2-2-4-4---3-3--||
D||--5-5---5-5-4-4-7-7-2-2-4-4---3-3--||
A||--3-3---3-3-2-2-5-5-0-0-2-2---1-1--||

d||--7~~~~~~8p7~~~~~~~7~~~~~~8p5~~~~--|| Gtr2 (Ryan)
a||-----------------------------------||  ~=i use a Lexcion
                                         digital delay processor,i
                                                don't know what Ryan
                                                              uses.
Verse Riff
"found out your really something..."
A||---------------------------|| Gtr1 (Amir)
E||-2-0---0-2-0-5-5-5--3-3-3--||

d||--7-----5--12--13---7---5--|| Gtr2 (Ryan)
a||-----7----------------7----||
F||---------------------------||
[ Tab from: http://www.guitartabs.cc/tabs/o/orgy/dissention_tab_ver_2.html ]
Interlude(last part)
"don't waste your fucking time.."
a||-----------------------------------------------------------------||
F||-----------------------------------------------------------------||
C||-----------------------------------------------------------------||
G||-5-5-5-5-5-5-5-5-5-5-5-5-5-5-5-5-3-3-3-3-3-3-3-3-6-6-6-6-6-6-6-6-||
D||-5-5-5-5-5-5-5-5-5-5-5-5-5-5-5-5-3-3-3-3-3-3-3-3-6-6-6-6-6-6-6-6-||
A||-3-3-3-3-3-3-3-3-3-3-3-3-3-3-3-3-1-1-1-1-1-1-1-1-4-4-4-4-4-4-4-4-||
Gtr1 (Amir)
i don't know what the hell Ryan plays,some heavy harmonic freak ass
thingy 
on his syntheziser pedals and crap...

a||---------------------------------------------------|>
F||---------------------------------------------------|>
C||---------------------------------------------------|>
G||-5-5-5-5-5-5-5-5-5-5-5-5-5-5-5-5-12-12-12-12-12-12-|>
D||-5-5-5-5-5-5-5-5-5-5-5-5-5-5-5-5-12-12-12-12-12-12-|>
A||-9-9-9-9-9-9-9-9-9-9-9-9-9-9-9-9-10-10-10-10-10-10-|>
Continued...
a||------------------------------------------------------------||
F||------------------------------------------------------------||
C||------------------------------------------------------------||
G||-9-9-9-9-9-9-9-9-9-9-9-9-9-9-9-9-10-10-10-10-10-10-10-10-10-||
D||-9-9-9-9-9-9-9-9-9-9-9-9-9-9-9-9-10-10-10-10-10-10-10-10-10-||
A||-7-7-7-7-7-7-7-7-7-7-7-7-7-7-7-7--8--8--8--8--8--8--8--8--8-||

thats it,bye bye.
Comments