Orgy - Blue Monday Chords & Tabs

 

Blue Monday Chords & Tabs

Orgy Chords & Tabs

Version: 7 Type: Tab 0 ratings
1 star 2 stars 3 stars 4 stars 5 stars
comments

Blue Monday Tab

TUNING: tune your guitar down half a step and then drop d (Db,Ab,Db,Gb,Bb,Eb)

 
     INTRO/VERSE:

   Eb|--------------------------------------------------|
   Bb|--------------------------------------------------|
   Gb|--------------------------------------------------|
   Db|--5--5--5--7--------------------------------------|
   Ab|--------------5--5--5--7--7--7--7--7--7--7--7--7--|
   Db|--------------------------------------------------|

     INTRO PART B:

   Eb|--------------------------------------------------|
   Bb|--12--------------------12------------------------|
   Gb|------11-------12-----------11-------9------------|
   Db|--------------------------------------------------|
   Ab|--------------------------------------------------|
   Db|--------------------------------------------------|

     CHORUS:

   Eb|---------------------------------------------------|
   Bb|---------------------------------------------------|
   Gb|---------------------------------------------------|
   Db|--5--5--5--5--0--0--0--0--2--2--2--2--2--2--2--2---|
   Ab|--5--5--5--5--0--0--0--0--2--2--2--2--2--2--2--2---|
   Db|--5--5--5--5--0--0--0--0--2--2--2--2--2--2--2--2---|

   Eb|---------------------------------------------------|
   Bb|---------------------------------------------------|
   Gb|---------------------------------------------------|
   Db|--7--7--7--7--0--0--0--0--2--2--2--2--2--2--2--2---|
   Ab|--7--7--7--7--0--0--0--0--2--2--2--2--2--2--2--2---|
   Db|--7--7--7--7--0--0--0--0--2--2--2--2--2--2--2--2---|

     1ST INTERLUDE PART A:
[ Tab from: http://www.guitartabs.cc/tabs/o/orgy/blue_monday_tab_ver_7.html ]
   Eb|------------------------------------------------19--19--------|
   Bb|--20--19--17--19--19--------------20--19--17------------------|
   Gb|------------------------16--16--------------------------------|
   Db|--------------------------------------------------------------|
   Ab|--------------------------------------------------------------|
   Db|--------------------------------------------------------------|

     1ST INTERLUDE PART B:

   Eb|--------------------------------------------------------------|
   Bb|--------------------------------------------------------------|
   Gb|--------------------------------------------------------------|
   Db|----------------------------------5-----------------5--7------|
   Ab|--7---------------------5--7---------------------------0--7---|
   Db|--2---------------------0--2------5-----------------5-----2---|

     2ND INTERLUDE:

   Eb|---------------------------------------------------------------------|
   Bb|---------------------------------------------------------------------|
   Gb|-----------------------------------4----------------------4----------|
   Db|---------------------------------------5----------------------5------|
   Ab|--7----5-------------------5--7-------------------5--7------------7--|
   Db|-----------7---------------------------------------------------------|

     OUTRO CHORUS:

   Eb|----------------------------------------------19--|
   Bb|--20--19--17--19--19------------20--19--17--------|
   Gb|------------------------16------------------------|
   Db|--16--------------17------------16------------14--|
   Ab|--------------------------------------------------|
   Db|--------------------------------------------------|

Comments