Orgy - Blue Monday Chords & Tabs

 

Blue Monday Chords & Tabs

Orgy Chords & Tabs

Version: 5 Type: Tab 0 ratings
1 star 2 stars 3 stars 4 stars 5 stars
comments

Blue Monday Tab

   
Name:Jeff Miller
Email:wes_boreland666@hotmail.com
Artist:Orgy
Song Title:Blue Monday

tuning A# D# G# C# F A# tuned down 5 steps, top to bottom

gtr.1    pt.1
 F|1-1-1-3-------------------
C#|---------0-0-0-0-2-2-2-2-2-2

gtr2.    pt.2
A#|12-----------------------12----------------
 F|-------12-----13------------------12-----10

chorus
G#|10-10-10-10--5-5-5-5--7-7-7-7-7-7-7-7
D#|10-10-10-10--5-5-5-5--7-7-7-7-7-7-7-7
A#|-8--8--8--8--3-3-3-3--5-5-5-5-5-5-5-5

G#|12-12-12-12--5-5-5-5--7-7-7-7-7-7-7-7
D#|12-12-12-12--5-5-5-5--7-7-7-7-7-7-7-7
A#|12-10-10-10--3-3-3-3--5-5-5-5-5-5-5-5

main verse same as chorus except in some weird finger movement and sound effects pedal.
[ Tab from: http://www.guitartabs.cc/tabs/o/orgy/blue_monday_tab_ver_5.html ]
interlude 1. gtr.1
C#|2-2-2-2-2-2-2-2-2-0-2

 F|1-1-1-1-1-1-1-1-1-3-------|
C#|--------------------2-----|

gtr.2 
light A#|20--19--17---19------|
       F|----------------17-17|

light A#|20--19--17--24

interlude 2.
A#|---------------------------0----------------0---------|
 F|-------------------------------1---------------1------|
C#|2----0--------------0---2----------0---2----------2---|
G#|-----------2------------------------------------------|

that'it. I know some tabs are wrong but this is absolutely correct because i copied it down from the official orgy sheet music book.  i did this because i didn't want people to go through the same thing i went through. when i got tabs sometimes they were way wrong.
Comments