Orgy - Blue Monday Chords & Tabs

 

Blue Monday Chords & Tabs

Orgy Chords & Tabs

Version: 2 Type: Tab 0 ratings
1 star 2 stars 3 stars 4 stars 5 stars
comments

Blue Monday Tab

SONG: Blue Monday
BAND: Orgy
ALBUM: Candyass
Transcribed by: Nick "Head Wannabe" Di Claudio
2 6 strings dropped A tuning High 2 Low  a F C G D A

Intro/Verse
"how does it feel,to treat me like you do?..."
a||--------------------------------------|| Gtr1 (Amir Derakh)
F||--------------------------------------||
C||--13-13-13/14\7-7-7/9-9--9-----9------||
G||--13-13-13/14\7-7-7/9-9-----9---------||
D||--11-11-11/12\5-5-5/7-7----7-7---7-7--||
A||--------------------------------------||

a||-----9-10~~~~~~~~------9-7~~~~~~~~~~--|| Gtr2 (Ryan Shuck)
F||--8-----------------8-----------------||
C||--------------------------------------||
G||--------------------------------------||
D||--------------------------------------||
A||--------------------------------------||

Fill(right before chorus)

a||---------------------------------------|| Both Gtrs
F||---------------------------------------||
C||-x-xx-x--x-xx-x--x-xx-x--x-xx-x-x-x-x--||
G||-x-xx-x--x-xx-x--x-xx-x--x-xx-x-x-x-x--||
D||-x-xx-x--x-xx-x--x-xx-x--x-xx-x-x-x-x--||
A||-x-xx-x--x-xx-x--x-xx-x--x-xx-x-x-x-x--||
[ Tab from: http://www.guitartabs.cc/tabs/o/orgy/blue_monday_tab_ver_2.html ]
Chorus
"How does it feel,how should i feel,tell me how does it feel..."
a||-----------------------------------------------------------------||
F||-----------------------------------------------------------------||
C||-----------------------------------------------------------------||
G||-7-7-7-7--2-2-2--4-4-4-4-4-4-4-4-9-9-9-9--2-2-2--4-4-4-4-4-4-4-4-||
D||-7-7-7-7--2-2-2--4-4-4-4-4-4-4-4-9-9-9-9--2-2-2--4-4-4-4-4-4-4-4-||
A||-5-5-5-5--0-0-0--2-2-2-2-2-2-2-2-7-7-7-7--0-0-0--2-2-2-2-2-2-2-2-||
                                                             Both Gtrs
Solo 1

a||------------------------------------------------------|| Gtr1 (Amir
F||------------------------------------------------------||   Derkakh)
C||-9-9-9-9-9-9-9--9-7-9--12-12-12-12-12-12-12--12-14-9--||
G||-9-9-9-9-9-9-9--9-7-9--12-12-12-12-12-12-12--12-14-9--||
D||-7-7-7-7-7-7-7--7-5-7--10-10-10-10-10-10-10--10-12-7--||
A||------------------------------------------------------||

Solo 2

a||---------------------------------------------------|| Gtr1 (Amir
F||---------------------------------------------------||       Derakh)
C||-9-9----7--4------9-9---16--12----9-9---16-12-9-4--||
G||-9-9----7--4------9-9---16--12----9-9---16-12-9-4--||
D||-7-7----5--2------7-7---14--10----7-7---14-10-7-2--||
A||---------------------------------------------------||

heres a legend...
    ~= pedal (not sure what kind)   x= dead note
    \= slide down
    /= slide up

thats all,enjoy.
______________________________________________________________________
well,here ya go man.full version just for you,please post it k?
          -Nick thanx.i'll keep looking for tab stealing bastards.
Comments