Orgy - Blue Monday Chords & Tabs

 

Blue Monday Chords & Tabs

Orgy Chords & Tabs

Version: 16 Type: Tab 0 ratings
1 star 2 stars 3 stars 4 stars 5 stars
comments

Blue Monday Tab

Guitar 1 (Intro and Verse)
-----------------------------------
-----------------------------------
----------0------------------------
--3-3-3------------0-0---0-0 0-----
-------------3-3-3-----------------
-----------------------------------

Guitar 2 (Intro)
------------------------------------
--10---------------10---------------
-------9--10------------9---7-------
------------------------------------
------------------------------------
------------------------------------

Guitar 1 (Chorus)
-------------------------------------------------------------------------------
-------------------------------------------------------------------------------
-10-10-10-10--5-5-5-5--7-7-7-7-7-7-7-7---12-12-12-12--5-5-5-5--7-7-7-7-7-7-7-7-
-10-10-10-10--5-5-5-5--7-7-7-7-7-7-7-7---12-12-12-12--5-5-5-5--7-7-7-7-7-7-7-7-
--8--8--8--8--3-3-3-3--5-5-5-5-5-5-5-5---10-10-10-10--3-3-3-3--5-5-5-5-5-5-5-5-
-------------------------------------------------------------------------------
[ Tab from: http://www.guitartabs.cc/tabs/o/orgy/blue_monday_tab_ver_16.html ]
Guitar 2 (Chorus)
------------------------------------------------------------------------
------------------------------------------------------------------------
------------------------------------------------------------------------
--7-7-7-7--2-2-2-2--4-4-4-4-4-4-4-4--9-9-9-9--2-2-2-2--4-4-4-4-4-4-4-4--
--7-7-7-7--2-2-2-2--4-4-4-4-4-4-4-4--9-9-9-9--2-2-2-2--4-4-4-4-4-4-4-4--
--7-7-7-7--2-2-2-2--4-4-4-4-4-4-4-4--9-9-9-9--2-2-2-2--4-4-4-4-4-4-4-4--

Guitar 1(Bridge)
--------------------------------------------------
--------------------------------------------------
--------------------------------------------------
--3--2--0--2---------------3--2--0--3-----5--0----
------------------0--3----------------------------
--------------------------------------------------

Guitar 2 (Bridge)
--13--12--10--12--12--5----13--12--10--15---17--10--
----------------------------------------------------
----------------------------------------------------
----------------------------------------------------
----------------------------------------------------
----------------------------------------------------

Guitar 1 (Solo)
------------------------------------------------------
------------------------------------------------------
------------------------------------------------------
-------------------3--7---------------3-----7--3------
--5--3--0----5---------5--------5-----------------5---
------------------------------------------------------



Song order: (also listen to song for exact timing)

Guitar 1 intro (3x)
Guitar 1 and 2 intro (2x)
Chorus (2x)
Verse (8x)
Chorus (2x)
Verse (8x)
Bridge (2x)
Verse (10x)
Solo (1x)
Verse (4x)
Chorus (3x)
Chorus (Guitar1) and Bridge(Guitar 2) (4x)
Comments