Orgy - Blue Monday Chords & Tabs

 

Blue Monday Chords & Tabs

Orgy Chords & Tabs

Version: 1 Type: Chords 0 ratings
1 star 2 stars 3 stars 4 stars 5 stars
comments

Blue Monday Chords

Tabbed by Brendan Rothemund
Bong_on@marijuana.ms
Blue Monday_Orgy
drums play then gtr1 plays (Verse)
e-----------------------------
b-----------------------------
g---6--6----3--3----4--4--
d---6--6----3--3----4--4--
a---4--4----1--1----2--2--
E-----------------------------

Drums, then gtr1 distorted plays (Chorus)
e---------------------------
b---------------------------
g---------------------------
d---6--6----3--3----4--4
a---6--6----3--3----4--4
E---4--4----1--1----2--2

e--------------------------------------------------------------------------
b--------------------------------------------------------------------------
g-------------------------------7--7----9--9----8--------------11-9-7
d---6--6----4--4----3--3----7--7----9--9----8-----7--7----11-9-7
a---6--6----4--4----3--3----5--5----7--7----6-----7--7-----9--7-5
E---4--4----2--2----1--1-----------------------------5--5-------------
[ Tab from: http://www.guitartabs.cc/tabs/o/orgy/blue_monday_crd.html ]
"Lyrics"  how does it feel, to treat me like you do, when you've layed your hands upon me, and told me who you are, I thaught I was mistaken, I thaught I heard yor words, tell me how do I feel, tell me how how should I feel, (chorus: how does it feel, how should I feel, tell me how does it feel, to treat me like you do), those who came before me, if you've evocations, from the past until completion, they will turn away no more, and I see your fighting so hard, to say what I need to say, but i'm quite sure that you'll tell me, just how I should feel today, I see a ship in the harbour, I can inshadow pain, but if it wasn't for your misfortunes, i'd be a happily person today, I thaught I was mistaken, I thaught I heard you speak, tell me how does it feel, tell me how how should I feel, now I stand in waiting, I thaught I told you leave me, when I walk down to the beach, tell me how does it feel, when your heart grows cold, grows cold, grows cold
Comments