Orgy - Blue Monday Chords & Tabs

 

Blue Monday Chords & Tabs

Orgy Chords & Tabs

Version: 4 Type: Bass Tab 0 ratings
1 star 2 stars 3 stars 4 stars 5 stars
comments

Blue Monday Bass Tab

   
Orgy- Blue Monday (Bass) 
Tabbed by Blake Foster 
Blfoster@vassar.edu 
Tune normal (E A D G) 
Intro 
  
G----------------------------------- 
D----------------------------------- 
A-9-9-9-11-4-4-4-5-6-6-6-6-6-6-6-6-- 
E----------------------------------- 
  

Then play 

G---------------------------------------------------------------------- 
D---------------------------------------------------------------------- 
A-9-9-9-9-8-8-8-8-7-7-7-7-7-7-7-7-11-11-11-11-4-4-4-4-6-6-6-6-6-6-6-6-- (this is also used in other parts of the song) 
E---------------------------------------------------------------------- 

How does it feel. . . 

G---------------------------- 
D---------------------------- 
A-9--9--8--8--7--7--7--7----- 
E---------------------------- 
To treat me like you do. . . 
  

G--------------------------- 
D--------------------------- 
A-11--11--4--4--6--6--6--6-- 
E--------------------------- 

I thought I was mistaken. . . 
[ Tab from: http://www.guitartabs.cc/tabs/o/orgy/blue_monday_btab_ver_4.html ]
G--------------------------------- 
D--------------------------------- 
A-13--13--11--11--11--10--10--10-- 
E--------------------------------- 
  

This is played when that in keyboard thing comes in, in the middle of the song. 

G------------------------------------------ 
D------------------------------------------ 
A-9--8--6--8--8--1-1------9--8--6--13--13-- 
E------------------------------------------ 

This part is played after "now I stand here waiting." 

G--------------------------------------------------------------------------- 
D---------------------------------------8-4--1----------------------8-4--1-- 
A-6------4------1------------4-6-------------------------4-6---------------- 
E--------------------------------------------------------------------------- 

ver. 2 
______ 

verses 
d|--5---5----0--0----2--2--2--2----7--7----0---0---2--2--2--2-| 
a|------------------------------------------------------------| 
e|-5--5----0--0----2--2--2--2----7--7----0--0----2--2--2--2---| 

chorus 
e|-5-5-5-5--0-0-0-0---2-2-2-2-2-2-2-2/7-7-7-7-0-0-0-0-2-2-2-2-2-2-2-2-| 
Comments