Orgy - Blue Monday Chords & Tabs

 

Blue Monday Chords & Tabs

Orgy Chords & Tabs

Version: 3 Type: Bass Tab 0 ratings
1 star 2 stars 3 stars 4 stars 5 stars
comments

Blue Monday Bass Tab

   
well for all you bass players out there heres my way of blue monday on bass and its sounds pretty good and if u have complains well kiss my a** here it goes

intro x2 wait 18 seconds before coming in

G-------------------
D-2-----7-6-0---4---
A-------------------
E-------------------
B-------------------

verse 
[ Tab from: http://www.guitartabs.cc/tabs/o/orgy/blue_monday_btab_ver_3.html ]
G-----------------------------
D-----------------------------
A---2--4--6--2--4--6--6--4--2-
E--2--4--6--2--4--6--6--4--2--
B-----------------------------

chorus x2
G-----------------------------------------------------
D---------------------------------------------------
A----------------------------------------------------
E-5-5-5-5-0-0-0-0-2-2-2-2-2-2-2-2-7-7-7-7-0-0-0-0-2-2-2-2-2-2-2-2-
B------------------------------------------------------
Comments