Ordinary Boys - Thanks To The Girl Chords & Tabs

 

Thanks To The Girl Chords & Tabs

Ordinary Boys Chords & Tabs

Version: 1 Type: Tab

Thanks To The Girl Tab

Thanks to the Girl
The Ordinary boys
Track 4 - Brassbound
Enjoy, This is as accurate as i can be:

Intro - Guitar 1

|----------0-3--|
|----------1-2--|
|---5---7--2-3--|
|-5-5-7-7--2-0--|
|-5-3-7-5--0----|
|-3---5---------|

Guitar 2 (Played over intro riff 1)

|---------0-3-----|
|---------1-2-----|
|---5-7-7-2-3-----|
|-5-5-7-7-2-0-----|
|-5-3-4-5-0-------|
|-3---------------|


Cant be arsed to type lyrics! Sorry!

The chords thoroughout the verses go like this
[ Tab from: http://www.guitartabs.cc/tabs/o/ordinary_boys/thanks_to_the_girl_tab.html ]
G  (3,5,5,4,3,3)
Em (x,7,9,9,8,7)
Bm (7,9,8,8,7,7)
C  (8,10,10,9,8,8)

When preston sings "Thanks to the girl"

|-10---8----------|
|-10---8----------|First chord x14 in quick sucsession.
|-11---9----------|
|-----------------|
|-----------------|
|-----------------|Repeat x2.

Next part:

Em (x,7,9,9,8,7)
Am (5,7,7,5,5,5)
C  (x,3,5,5,5,x)
D  (x,5,7,7,7,x) x2

Next part:

Bm (7,9,9,7,7,7)
Em (0,2,2,0,0,0)
C  (x,3,5,5,5,x)
D  (x,5,7,7,7,x)

I'll ad solo on request on TOb site, thanks.