Ordinary Boys - Brassbound Chords & Tabs

 

Brassbound Chords & Tabs

Ordinary Boys Chords & Tabs

Version: 1 Type: Tab 0 ratings
1 star 2 stars 3 stars 4 stars 5 stars
comments

Brassbound Tab

-------------------------------------------------------------------------------
			     Brassbound - Ordinary Boys
-------------------------------------------------------------------------------
Tabbed by:Charlie Richards
Email:thehardestbuttontobutton1@hotmail.com

Tuning:eBGDAE

Intro

e|--------------------------------2--|
B|---------------------7-7-7------2--|
G|------8-8-------8-8--7-7-7------3--|
D|-9-9--9-9--9-9--9-9--7-7-7------4--|
A|-9-9--9-9--9-9--9-9--5-5-5------4--|
E|-7-7--7-7--7-7--7-7---------x3--2--|

Verse

e|---------------------------------------------------2-2-2-2-2-2--------|
B|------------------------------9-9-9----------------2-2-2-2-2-2--------|
G|--8-8-8--3-3-3--5-5-5--3-3-3--9-9-9--3-3-3--8-8-8--3-3-3-3-3-3--------|
D|--9-9-9--4-4-4--6-6-6--4-4-4--9-9-9--4-4-4--9-9-9--4-4-4-4-4-4--------|
A|--9-9-9--4-4-4--6-6-6--4-4-4--7-7-7--4-4-4--9-9-9--4-4-4-4-4-4--------|
E|--7-7-7--2-2-2--4-4-4--2-2-2---------2-2-2--7-7-7--2-2-2-2-2-2----x4--|

Chorus
[ Tab from: http://www.guitartabs.cc/tabs/o/ordinary_boys/brassbound_tab.html ]
e|--------------------------------------------------|
B|-----------------------------6-6-6-6--8-8-8-8--9--|
G|--1-1-1-1-1-1-1-1--8--6--5---6-6-6-6--8-8-8-8--9--|
D|--2-2-2-2-2-2-2-2--9--7--6---6-6-6-6--8-8-8-8--9--|
A|--2-2-2-2-2-2-2-2--9--7--6---4-4-4-4--6-6-6-6--7--|
E|--0-0-0-0-0-0-0-0--7--5--4------------------------|

Solo

e|-----------------------------------------------|
B|-----------------------------------------------|
G|--4--6--8---4--6--8---9-8------9-8------11--8--|
D|--------------------------11-9-----11-9--------|
A|-----------------------------------------------|
E|-----------------------------------------------|

e|--------------------------------------------------------------------------------------|
B|--------------------------------------------------------------------------------------|
G|--4--6--8---4--6--8---9-8-------9-8------11-12----------------------------------------|
D|---------------------------11-9-----11-9----------------------------------------------|
A|--------------------------------------------------------------------------------------|
E|--------------------------------------------------------------------------------------|

Bridge

e|-----------------------------------------|
B|-----------------------7-7-7-------------|
G|-------8-8-------8-8---7-7-7-------------|
D|--9-9--9-9--9-9--9-9---7-7-7-------------|
A|--9-9--9-9--9-9--9-9---5-5-5-------------|
E|--7-7--7-7--7-7--7-7-----------------x2--|

    Think for a minute ......

I think thats it, any corrections email me if you want or whatever.
Comments