Ordinary Boys - Boys Will Be Boys Chords & Tabs

 

Boys Will Be Boys Chords & Tabs

Ordinary Boys Chords & Tabs

Version: 1 Type: Tab 0 ratings
1 star 2 stars 3 stars 4 stars 5 stars
comments

Boys Will Be Boys Tab

The song is brand new out so the artist will not be in the database yet.

Lovin' this song, anyways its pretty much repeated a number of times so here it is, 
good to me.

Intro:

Guitar 1:

e-------------|-------------|
b-------------|-------------|
g--5--4-------|-9---9--9-9--|
d--5--4--5--4-|-9---9--9-9--|
a--3--2--5--4-|-7---7--7-7--|
E--------3--2-|-------------|

Guitar 2:

e-------------|----------------------------|
b-------------|----------------------------|
g--5--4-------|-9----------9---------------|
d--5--4--5--4-|----9--8h9-----9--8h9-------|
a--3--2--5--4-|----------------------10-9--|
E--------3--2-|----------------------------|

Verse 1:

Guitar 1:
[ Tab from: http://www.guitartabs.cc/tabs/o/ordinary_boys/boys_will_be_boys_tab.html ]
e---------------------       ---------------------       --------------|
b---------------------       ---------------------       --------------|
g--9--9---9-9-9-9--9--       --2--2---2-2-2-2--2--       --4--4---4-4--|
d--9--9---9-9-9-9--9--       --2--2---2-2-2-2--2--       --4--4---4-4--|
a--7--7---7-7-7-7--7-- Intro --0--0---0-0-0-0--0-- Intro --2--2---2-2--|
E---------------------       ---------------------       --------------|

Guitar 2 plays nothing while the first gutiar is playing the verse apart from where it 
Intro.

Second part: Play each chord 8 times then play the song over again with alterations. 
guitars play this.

e-----------------------|
b-----------------------|
g--9--8--7--6--5--4--2--|
d--9--9--7--7--5--5--2--|
a--7--6--5--4--3--2--0--|
E-----------------------|

Outro:

e-----------------------------------------|
b-----------------------------------------|
g--5--4--------5--4--------5--4--------9--|
d--5--4--5--4--5--4--5--4--5--4--5--4--9--|
a--3--2--5--4--3--2--5--4--3--2--5--4--7--|
E--------3--2--------3--2--------3--2-----|

That's your lot. Any corrections, comments e.t.c email me on cazz3000@msn.com.
Comments