Ordinance - Unicorn Poo Chords & Tabs

 

Unicorn Poo Chords & Tabs

Ordinance Chords & Tabs

Version: 2 Type: Tab 0 ratings
1 star 2 stars 3 stars 4 stars 5 stars
comments

Unicorn Poo Tab

This song was written and copywrited by Ordinance and is to only be
used for Educational uses only.

These tabs are completly correct because the writer (Adam "Stiffy")
Personaly wrote me out the tabs.

The effects needed in this song are distortion and mute palming. Its
to add other effects though too like a phaser of a wha-wha pedal.
______________________________________________________________________

     |---------------------------------|
        ^35 beat drum and bass solo^
______________________________________________________________________

Riff 1 :
(distortion)

e---------------------------------------------------------------------|
b---------------------------------------------------------------------|
g---------------------------------------------------------------------|
d---2-2-2----4-4-4----7----9-9-9--------------------------------------|
a---2-2-2----4-4-4----7----9-9-9--------------------------------------|
E---0-0-0----2-2-2----5----7-7-7--------------------------------------|
______________________________________________________________________
[ Tab from: http://www.guitartabs.cc/tabs/o/ordinance/unicorn_poo_tab_ver_2.html ]
Riff 2 :
(distortion)

e---------------------------------------------------------------------|
b---------------------------------------------------------------------|
g---9-9-9-------------------------------------------------------------|
d---9-9-9----4-4-4----7----9-9-9--------------------------------------|
a---7-7-7----4-4-4----7----9-9-9--------------------------------------|
E------------2-2-2----5----7-7-7--------------------------------------|
______________________________________________________________________

Riff 3 :
(palm muted with distortion)

e---------------------------------------------------------------------|
b---------------------------------------------------------------------|
g---------------------------------------------------------------------|
d---6-6-6----7-7-7-----11-11----9-9-9---------------------------------|
a---7-7-7----7-7-7-----11-11----9-9-9---------------------------------|
E---0-0-0----5-5-5------9--9----7-7-7---------------------------------|


The song order is:

Riff 1
Riff 1
Riff 2
Riff 1
Riff 3
Riff 3
Riff 3
Riff 3
Riff 1
Riff 1
Riff 2
Riff 1
Riff 1

Thats It!!
Comments