Orange Goblin - Scorpionica Chords & Tabs

 

Scorpionica Chords & Tabs

Orange Goblin Chords & Tabs

Version: 1 Type: Bass Tab 0 ratings
1 star 2 stars 3 stars 4 stars 5 stars
comments

Scorpionica Bass Tab

   
---------------------------- Scorpionica – Orange Goblin –Bass tab--------------------------------
Tabbed by Adam: Email:achampoux27@gmail.com
Tuning: standard(But I play this in C# standard with my band and it sounds HEAVY)(The
timings and the song structure are really easy on this song, just play along with it a
couple times to fix it out, I did put all the parts in order but not how many times to 
play each part).
G|--------------------------------------|
D|--------------------------------------|
A|------------------5----5-h-7-7-7-7-7-7|
E|0----0--5-h-7-------------------------|

G|--------------------------------------------------------------------------|
D|--------------------------------------------------------------------------|
A|--------------------------------------------------------------------------|
E|-0-0-0-0-0-0-8-8-8-5-5-5-0-0-0-0-0-0-8-8-8-5-5-5-0-0-0-0-0-0-8-8-8-5-5-5--|

G|--------------------------------------------------------------------------|
D|--------------------------------------------------------------------------|
A|-5-5-5-5-5-5-6-6-6-6-6-6--------------------------------------------------|
E|--------------------------------------------------------------------------|


G|--------------------------------------|
D|--------------------------------------|
A|------------------5----5-h-7-7-7-7-7-7|
E|0----0--5-h-7-------------------------|

[ Tab from: http://www.guitartabs.cc/tabs/o/orange_goblin/scorpionica_btab.html ]
G|--------------------------------------------------------------------------|
D|--------------------------------------------------------------------------|
A|--------------------------------------------------------------------------|
E|-0-0-0-0-0-0-8-8-8-5-5-5-0-0-0-0-0-0-8-8-8-5-5-5-0-0-0-0-0-0-8-8-8-5-5-5--|

G|--------------------------------------------------------------------------|
D|--------------------------------------------------------------------------|
A|-5-5-5-5-5-5-6-6-6-6-6-6--------------------------------------------------|
E|--------------------------------------------------------------------------|

G|---------------------------------------------------------|
D|---------------------------------------------------------|
A|-----------------7-7-5----7------------------------------|
E|-0---7-7P5h7----------7----7---3-3-3-3-3-3 3/6-6-6\-1-1-1|

(for the last note you can alternate between 1 and 11, I saw the bassist do this when I
saw them play it live)

G|--------------------------------------|
D|--------------------------------------|
A|------------------5----5-h-7-7-7-7-7-7|
E|0----0--5-h-7-------------------------|

G|------------------------------------------------------------------------|
D|------------------------------------------------------------------------|
A|------------------------------------------------------------------------|
E|-0-0-0-0-0-0-8-8-8-5-5-5-0-0-0-0-0-0-8-8-8-5-5-5-0-0-0-0-0-0-8-8-8-5-5-5|

G|------------------------|
D|------------------------|
A|-5-5-5-5-5-5-6-6-6-6-6-6|
E|------------------------|


| /  slide up
| \  slide down
| H  hammer-on
| P pull off
Comments