Orange And Lemons - Pinoy Ako Chords & Tabs

 

Pinoy Ako Chords & Tabs

Orange And Lemons Chords & Tabs

Version: 2 Type: Tab 0 ratings
1 star 2 stars 3 stars 4 stars 5 stars
comments

Pinoy Ako Tab

   
Song Name   : PINOY AKO
Song Artist : ORANGE AND LEMONS
Tabbed By   : jdimpas@lexmark.com (Jan Michael Dimpas)
              Center for Industrial Technology & Enterprise(CITE)
 
                  Please Rate this..

            ----------------------------------
                      PINOY AKO
            ----------------------------------
               ( Pinoy Big Brother )

 	
	Cool ang song na ito! Especially sa mga kapamilya..
	Ganda ng pinoy big brothers.. Mga dude ito lang
	muna ang submit ko.. Pero okay na rin ito..
	see me at my friendster janmichael_dimpas2004@yahoo.com

Standard Tuning: EADGBE

[Intro] 

e|-------5-------5-------5------5----------------|
B|-----5---5---5---5---5--5---5--5---------------|
G|---7-------7-------7------7------7-------------| Continuous..
D|-----------------------------------------------|
A|-----------------------------------------------|
E|-----------------------------------------------|

   Continuous lang ang pag play tapos..
   Mga 8 times clyle papasuk yun bass.


Bass:

G|-----------------------------------------------| 
D|-----------------------------------------------|
A|-------5h7-/12-----11------12--11------12------|
E|-----------------------12----------12----------|


G|--------------------------------------------------| 
D|--------------------------------------------------|
A|-----555--------------------------------------5---| Pa balik-balik..
E|-----------2---222----7----777-----3----333-------|

Tapos Fill in ng lead:...

e|----------------------------|
B|-------10----11-----12------|
G|--------9----12-----13------| 
D|----------------------------|
A|----------------------------|
E|----------------------------|

VerseI:

The Verses are bass guitar and drums with some lead fill-ins..
So kayo ang bahala..


G|--------------------------------------------------| 
D|--------------------------------------------------|
A|-----555--------------------------------------5---| Pa balik-balik 
E|-----------2---222----7----777-----3----333-------| sa verses


Some Lead Fill ins..

e|-------------------10--------------|
B|-----10---12-13------13-12--b13----|
G|-----------------------------------| 
D|-----------------------------------|
A|-----------------------------------|
E|-----------------------------------|


Rhythm guitar:

D	F#m		Bm	G			D
Lahat tayo mayroon pagkakaiba madalang makikita na 
D	F#m	   Bm	       G		
Iba't ibang kagustuhan ngunit isang patutunguhan
D	  F#m                  Bm
Gabay at pagmamahal ang hanap ko
	G                  D        
Pagbibigay ng halaga sa iyo
D      F#m	Bm	 G              Am 		D			
Nais mong ipakilala kung sino ka man talaga?


[ Tab from: http://www.guitartabs.cc/tabs/o/orange_and_lemons/pinoy_ako_tab_ver_2.html ]
Chorus:
D	    F#m
Pinoy, ikaw Pinoy
Bm	   A
Ipakita sa mundo
D	          F#m
Kung ano ang kaya mo
Bm	  A
Ibang-iba Pinoy
D	       F#m
Wag kang matatakot
Bm	    A
Ipagmalaki mo ,
D       A  Bm       G
Pinoy ako, Pinoy tayo


Some Lead Fill ins..

e|-------------------10--------------|
B|-----10---12-13------13-12--b13----|
G|-----------------------------------| 
D|-----------------------------------|
A|-----------------------------------|
E|-----------------------------------|



Verse II

G|--------------------------------------------------| 
D|--------------------------------------------------|
A|-----555--------------------------------------5---| Pa balik-balik.. sa 
E|-----------2---222----7----777-----3----333-------| sa verses



Some Lead Fill ins..

e|-------------------10--------------|
B|-----10---12-13------13-12--b13----|
G|-----------------------------------| 
D|-----------------------------------|
A|-----------------------------------|
E|-----------------------------------|



VerseII:
D        F#m                Bm
Ipakita mo ang tunay at kung sino ka?
        G                 D 
Mayroon masasama at maganda
   F#m            Bm
Wala naman perpekto
  G              G
Basta magpakatotoo oohh...
D        F#m                Bm   
Gabay at pagmamahal ang hanap mo
        G                 D 
Pagbibigay ng halaga sa iyo
D    F#m         Bm         G            Am
Nais mong ipakilala kung sino ka man talaga?


Repeat Chorus

Verse III.

G|--------------------------------------------------| 
D|--------------------------------------------------|
A|-----555--------------------------------------5---| Pa balik-balik.. sa 
E|-----------2---222----7----777-----3----333-------| verses.


Some Lead Fill ins..

e|-------------------10--------------|
B|-----10---12-13------13-12--b13----|
G|-----------------------------------| 
D|-----------------------------------|
A|-----------------------------------|
E|-----------------------------------|


VerseIII:
D                   F#m
Talagang ganyan ang buhay
Bm                  G
Dapat ka nang masanay
D               F#m
Wala rin mangyayari
Bm                     G
Kung laging nakikibagay
D                F#m
Ipakilala ang iyong sarili 
Bm                      G
Ano man sa iyo ang mangyari
D              F#m
Ang lagi mong iisipin
Bm 		G      Am
Kayang kayang gawin


Repeat Chorus


[Outro]


e|-------5-------5-------5------5----------------|
B|-----5---5---5---5---5--5---5--5---------------|
G|---7-------7-------7------7------7-------------| Continuous..
D|-----------------------------------------------|
A|-----------------------------------------------|
E|-----------------------------------------------|


Please Rate this... Thanks
Comments