Orange And Lemons - Nerve Chords & Tabs

 

Nerve Chords & Tabs

Orange And Lemons Chords & Tabs

Version: 1 Type: Tab 0 ratings
1 star 2 stars 3 stars 4 stars 5 stars
comments

Nerve Tab

   
xnxa n,1st tym s tabs

 Intro:
e|----------------------------0---|
B|------5-------5-----5-----5-----|
G|----6---6---6-----6-----6-------|
D|--7-------7-----7-----7---------|  (2x)
A|--------------------------------|
E|--------------------------------|
 
e|------0---0---0------0-------0--|
B|----5---5---5------5-------5----| 
G|--6--------------6-------6------|
D|-----------------------7--------|  (2x) 
A|--------------------------------| 
E|--------------------------------| 

  Verse1:
e|----------------------------0---|
B|------5-------5-----5-----5-----|
G|----6---6---6-----6-----6-------|
D|--7-------7-----7-----7---------|
A|--------------------------------|
E|--------------------------------| 

e|----------------------------0---|
B|------5-------5-----5-----5-----|
G|----6---6---6-----6-----6-------|
D|--7-------7-----7-----7---------|
A|--------------------------------|
E|--------------------------------| 

e|----------------------------0---|
B|------5-------5-----5-----5-----|
G|----6---6---6-----6-----6-------|
D|--7-------7-----7-----7---------|
A|--------------------------------|
E|--------------------------------| 

e|--------------------------------------|
B|------7-------7-----7-----5-------7---|
G|----6---6---6-----6-----6-------7-----|
D|--7-------7-----5-----5-------7-------|
A|----------------------------5---------|
E|--------------------------------------| 

I do not have the nerve,
to take a chance on you.
I find it hard to tell you
cause it hard for me to take this feeling of hopelesness


 pre-verse:
e|------0---0---0------0-------0--|
B|----5---5---5------5-------5----| 
G|--6--------------6-------6------|
D|-----------------------7--------|  (2x) 
A|--------------------------------| 
E|--------------------------------| 


 Verse2:
e|----------------------------0---|
B|------5-------5-----5-----5-----|
G|----6---6---6-----6-----6-------|
D|--7-------7-----7-----7---------|
A|--------------------------------|
E|--------------------------------| 

e|----------------------------0---|
B|------5-------5-----5-----5-----|
G|----6---6---6-----6-----6-------|
D|--7-------7-----7-----7---------|
A|--------------------------------|
E|--------------------------------| 

e|----------------------------0---|
B|------5-------5-----5-----5-----|
G|----6---6---6-----6-----6-------|
D|--7-------7-----7-----7---------|
A|--------------------------------|
E|--------------------------------| 

e|-------------------------|
B|-------7-----5-------7---|
G|-----6-----6-------7-----|
D|---5-----5-------7-------|
A|---------------5---------|
E|-------------------------| 

I live in a secret world,
hoping to wake up
when things get started.
But its not too late to be strong.

 Chorus:
[ Tab from: http://www.guitartabs.cc/tabs/o/orange_and_lemons/nerve_tab.html ]
 A           E
 Time has no meaning,
      F#m       D
   my love will never end.
 A           E
 Time has no meaning,
       F#m            D           (F#m,G#m,A)
   but when can i make it work?



e|----------------------------0---|
B|------5-------5-----5-----5-----|
G|----6---6---6-----6-----6-------|
D|--7-------7-----7-----7---------| 
A|--------------------------------|
E|--------------------------------|
 
e|------0---0---0------0-------0--|
B|----5---5---5------5-------5----| 
G|--6--------------6-------6------|
D|-----------------------7--------|  
A|--------------------------------| 
E|--------------------------------| 


 Verse3:
e|----------------------------0---|
B|------5-------5-----5-----5-----|
G|----6---6---6-----6-----6-------|
D|--7-------7-----7-----7---------|
A|--------------------------------|
E|--------------------------------| 

e|----------------------------0---|
B|------5-------5-----5-----5-----|
G|----6---6---6-----6-----6-------|
D|--7-------7-----7-----7---------|
A|--------------------------------|
E|--------------------------------| 

e|----------------------------0---|
B|------5-------5-----5-----5-----|
G|----6---6---6-----6-----6-------|
D|--7-------7-----7-----7---------|
A|--------------------------------|
E|--------------------------------| 

e|-------------------------|
B|-------7-----5-------7---|
G|-----6-----6-------7-----|
D|---5-----5-------7-------|
A|---------------5---------|
E|-------------------------| 

I've been here before,
could i need you too much?
the impresion you sell
a thousand wild flowers scent I fly too much.

Chorus:

 A           E
 Time has no meaning,
      F#m       D
   my love will never end.
 A           E
 Time has no meaning,
       F#m            D           (F#m,G#m,A)
   but when can i make it work?


A-- E-- F#m-- D--

adlib:
 (-D aq sure d2)
e|-----------------------------------------------------------|
B|-----------------------------------------------------------|
G|--4h5-666s8----8h9-7---------------------------9999----9999|
D|--------------------9----10109--10h11--11p10---9999----9999|
A|----------------------------------------------7------7-----|
E|-----------------------------------------------------------|
(pki timingan nlng)

Chorus:

 A           E
 Time has no meaning,
      F#m       D
   my love will never end.
 A           E
 Time has no meaning,
       F#m            D           (F#m,G#m,A)
   but when can i make it work?


                                       -09225214500
Comments