Orange And Lemons - Lihim Chords & Tabs

 

Lihim Chords & Tabs

Orange And Lemons Chords & Tabs

Version: 1 Type: Tab 0 ratings
1 star 2 stars 3 stars 4 stars 5 stars
comments

Lihim Tab

e|-2-3-2-0--------2-3-2-0-----------------------------7-7-|
B|-3-----------3--3-----------3-2h3h5-3-2---3-3--5-5--7-7-|
G|-2-------2h4----2-------2h4-------------4-4-4--6-6--7-7-|
D|------------------------------------------5-5--7-7--9-9-|
A|--------------------------------------------------------|   
E|--------------------------------------------------------| 
[ Tab from: http://www.guitartabs.cc/tabs/o/orange_and_lemons/lihim_tab.html ]
e|--------------------------------7-5--------------------7-9-9-10-10-|
B|-----3---3-5-7-7--5-7-5h7h8-7-5-----8-5--5-7-5h7h8-7-5-------------|
G|-2h4---4-----------------------------------------------------------|
D|-------------------------------------------------------------------|
A|-------------------------------------------------------------------|
E|-------------------------------------------------------------------|

e|-15-14---------15-14------------------------------
B|-15----15----15------15--------10-10-12-12-10-10--
G|-14--------14------------12-12--------------------
D|--------------------------------------------------
A|--------------------------------------------------
E|--------------------------------------------------


e|-------------------10h12h14-10-15-14-10-15-14-10\- \=slide down to open 
B|----------10h12h14-------------------------------|   string
G|-11h12h14----------------------------------------|
D|-------------------------------------------------|
A|-------------------------------------------------|
E|-------------------------------------------------|
Comments