Orange And Lemons - Just Like A Splendid Love Song Chords & Tabs

 

Just Like A Splendid Love Song Chords & Tabs

Orange And Lemons Chords & Tabs

Version: 2 Type: Tab 0 ratings
1 star 2 stars 3 stars 4 stars 5 stars
comments

Just Like A Splendid Love Song Tab

e2 tlga ung lead ng just like a splendid love song (hehehe!!! i'm 99 % sure d2!!)

e--------------------------------------------------------------------------|
B--------------------------------------------------------------------------|
G-4-5-5/7-7/12-----4-5-5/7-7/9------------------4-3-3/8--------------------|
D------------------------------5--5/4/5-----5-7----------------------------|
A--------------------------------------------------------------------------|
E--------------------------------------------------------------------------|
[ Tab from: http://www.guitartabs.cc/tabs/o/orange_and_lemons/just_like_a_splendid_love_song_tab_ver_2.html ]
e--------------------------------------------------------------------------|
B-------------------------------------------13-13-13-13-12-10-12-12/20-----|
G-8-7------7/12-----12-14-14/16-14-12/9-----12-12-12-12-12-12-12-12--------|
D-----10-9-----------------------------------------------------------------|
A--------------------------------------------------------------------------|
E--------------------------------------------------------------------------|

e-------------------------11-10----------------------15-15-15-15-15-15-15--|
B-8-10-10/12-10-8/13------------13-12-------15-------15-15-15-15-15-15-15--|
G-------------------------------------12/16----14/16-----------------------|
D--------------------------------------------------------------------------|
A--------------------------------------------------------------------------|
E--------------------------------------------------------------------------|


sana ok 2ng tab ko, d ako msyado mrunong gmawa, actually kinapa ko lng 2..
pero sure to n d nalalayo s orig...

for comments email lng po sakin nak3deye14@yahoo.com ok?

enjoy playing!!!!
Comments