Orange And Lemons - Hanggang Kailan Chords & Tabs

 

Hanggang Kailan Chords & Tabs

Orange And Lemons Chords & Tabs

Version: 1 Type: Tab 0 ratings
1 star 2 stars 3 stars 4 stars 5 stars
comments

Hanggang Kailan Tab

   
song: Hanggang kailan
artist: Orange And Lemons
album:strike whilst the iron is hot
tabbed by: Joshua A. Abella (Josh_TGP5@yahoo.com)

i saw the tab version of this song at another site, pero ang layo ng tunog...just listen at the 
whole song to get the strumming pattern right...i modified it with some guitarists i've been 
with for the past 3 years, Jerome, Regie, Arman and Andre...pati na rin ang aming vocalist na si Des...
i dedicate my work to them...again, please email me if you have suggestions, comments, violent reac-
tions and death threats(duda akong mapapatay n'yo kami, mga yakuza toh...hehe)..enjoy..:)


* chords with wide spaces indicate different strumming pattern 

Guitar 1, standard tuning

Intro (Fig 1 2x)

FIG 1

    EbM7                    F                      G
e|--6--6--6--6--6--6--6--6--1--1--1--1--1--1--1--- 3 ----------------
B|--8--8--8--8--8--8--8--8--1--1--1--1--1--1--1--- 3 ----------------
G|--7--7--7--7--7--7--7--7--2--2--2--2--2--2--2--- 4 ----------------
D|--8--8--8--8--8--8--8--8--3--3--3--3--3--3--3--- 5 ----------------
A|--6--6--6--6--6--6--6--6--3--3--3--3--3--3--3--- 5 ----------------
E|--6--6--6--6--6--6--6--6--1--1--1--1--1--1--1--- 3 ----------------


Stanza Chords (Fig 2 2x)

FIG 2

                      C                Cm7                          G
e|--------------------3~ ---------------3~ ------------------------ 3 ------------
B|--------------------5~ ---------------4~ ------------------------ 3 ------------
G|--------------------5~ ---------------3~ ------------------------ 4 ------------
D|--------------------5~ ---------------5~ ------------------------ 5 ------------
A|--------------------3~ ---------------3~ ------------------------ 5 ------------
E|--------------------3~ ---------------3~ ------------------------ 3 ------------
     1.Labis na naiinip,         nayayamot,            sa bawat saglit...
2.'Di mapigilang mag-isip na baka sa tagal mahulog ang loob mo sa iba...


               C             Cm7               G
e|-------------3~ -----------3~ -------------- 3 ------------
B|-------------5~ -----------4~ -------------- 3 ------------
G|-------------5~ -----------3~ -------------- 4 ------------
D|-------------5~ -----------5~ -------------- 5 ------------
A|-------------3~ -----------3~ -------------- 5 ------------
E|-------------3~ -----------3~ -------------- 3 ------------
    kapag naaalala ka, wala naman   akong magawa...
    nakakabalisa,     nakaluhod   'wag naman sana...

Refrain (Fig 3)

FIG 3
                 C         Cm7
e|-------------- 3 -------- 3 --------------------------
B|-------------- 5 -------- 4 --------------------------
G|-------------- 5 -------- 3 --------------------------
D|-------------- 5 -------- 5 --------------------------
A|-------------- 3 -------- 3 --------------------------
E|-------------- 3 -------- 3 --------------------------
   Umuwi ka na baby   'di ako sanay ng wala ka
[ Tab from: http://www.guitartabs.cc/tabs/o/orange_and_lemons/hanggang_kailan_tab.html ]
     G              E           C
e|-- 3 ------------ 0 --------- 3 ------------------------
B|-- 3 ------------ 0 --------- 5 ------------------------
G|-- 4 ------------ 1 --------- 5 ------------------------
D|-- 5 ------------ 2 --------- 5 ------------------------
A|-- 5 ------------ 2 --------- 3 ------------------------
E|-- 3 ------------------------ 3 ------------------------
   mahirap ang mag-isa  at sa gabi'y 

                 EbM7         F 
e|----------------6--6--6--6--1--1--1--------------------
B|----------------8--8--8--8--1--1--1--------------------
G|----------------7--7--7--7--2--2--2--------------------
D|----------------8--8--8--8--3--3--3--------------------
A|----------------6--6--6--6--3--3--3--------------------
E|----------------6--6--6--6--1--1--1--------------------
 hinahanap-hanap kita...


Chorus (Fig 4)

FIG 4

         C                       G
e|------ 3 --------------------- 3 ---------------------
B|------ 5 --------------------- 3 ---------------------
G|------ 5 --------------------- 4 ---------------------
D|------ 5 --------------------- 5 ---------------------
A|------ 3 --------------------- 5 ---------------------
E|------ 3 --------------------- 3 ---------------------
   hanggang kailan ako maghihintay na makasama kang 
     muli sa buhay kong puno ng paghihirap
 at tanging ikaw lang ang pumapawi sa mga luha at

       C           Cm7          G  
e|---- 3 ---------- 3 --------- 3 ------------------------
B|---- 5 ---------- 4 --------- 3 ------------------------
G|---- 5 ---------- 3 --------- 4 ------------------------
D|---- 5 ---------- 5 --------- 5 ------------------------
A|---- 3 ---------- 3 --------- 5 ------------------------
E|---- 3 ---------- 3 --------- 3 ------------------------
   naglalagay ng ngiti sa mga labi...

Stanza Chords (Fig 2)

Refrain

Chorus

Outtro (Fig 5 2x, Fig 1 once, Fig 6)


FIG 5
                  C                G                  C     G
e|--------------- 3 -------------- 3 ---------------- 3 --- 3 ---
B|--------------- 5 -------------- 3 ---------------- 5 --- 3 ---
G|--------------- 5 -------------- 4 ---------------- 5 --- 4 ---
D|--------------- 5 -------------- 5 ---------------- 5 --- 5 ---
A|--------------- 3 -------------- 5 ---------------- 3 --- 5 ---
E|--------------- 3 -------------- 3 ---------------- 3 --- 3 ---
    umuwi ka na baby, umuwi ka na baby, umuwi ka na baby  


FIG 6
     
     EbM7                 F                G
e|---6--6--6--6--6--6--6--1~ --------------3~ ---3~ --3~ --3~ -----
B|---8--8--8--8--8--8--8--1~ --------------3~ ---3~ --3~ --3~ -----
G|---7--7--7--7--7--7--7--2~ --------------4~ ---4~ --4~ --4~ -----
D|---8--8--8--8--8--8--8--3~ --------------5~ ---5~ --5~ --5~ -----
A|---6--6--6--6--6--6--6--3~ --------------5~ ---5~ --5~ --5~ -----
E|---6--6--6--6--6--6--6--1~ --------------3~ ---3~ --3~ --3~ -----

       G (32 times)      G
e|-----3-----------------3~ --------------------------
B|-----3-----------------3~ --------------------------
G|-----4-----------------4~ --------------------------
D|-----5-----------------5~ --------------------------
A|-----5-----------------5~ --------------------------
E|-----3-----------------3~ --------------------------


November 7, 2005 
3:36 PM
Comments