Orange And Lemons - Beginning Of Something Wonderful Chords & Tabs

 

Beginning Of Something Wonderful Chords & Tabs

Orange And Lemons Chords & Tabs

Version: 1 Type: Bass Tab 0 ratings
1 star 2 stars 3 stars 4 stars 5 stars
comments

Beginning Of Something Wonderful Bass Tab

   
Title: a beginning of something wonderful
Artist: Orange and Lemons

Warning: smile before plating it!!!!! (hehehe para masaya)

Intro: B-A-Gm-F#m

G|--------------|----------|-----------|-----------|
D|--------------|----------|-----------|-----------|
A|--------66p5-|-----4--3-|----22p1--|-----------|
E|----7---------|-5--------|-3---------|-2---3--4--|
                                  ...............play it (5 xs)

G|--------------|-----------|-----------|----------|
D|--------------|-----------|-----------|----------|
A|--------66p5-|-----4--3--|----22p1--|----------|
E|----7---------|-5---------|-3---------|-2---2----|

Verse:

G|--------------|----------|-----------|-----------|
D|--------------|----------|-----------|-----------|
A|--------66h5-|-----4--3-|----22h1--|-----------|
E|----7---------|-5--------|-3---------|-2---3--4--|

Refrain:
[ Tab from: http://www.guitartabs.cc/tabs/o/orange_and_lemons/beginning_of_something_wonderful_btab.html ]
G|-------------|------------|------------|-------------|
D|-------------|------------|------------|-------------|
A|-------------|------------|------------|-------------|
E|--5-5-5-5-5--|-7-7-7-7-7--|-1-1-1-1-1--|-3-3-3-3-3---|

Chorus:

G|--------------|----------|-----------|-----------|
D|--------------|----------|-----------|-----------|
A|--------66h5-|-----4--3-|----22h1--|-----------|
E|----7---------|-5--------|-3---------|-2---3--4--|

Bridge:

G|----------------|-------------|------------|-------------|
D|----------------|-------------|------------|-------------|
A|---7-7-7-7-7p6--|-5-5-5-5-5p4-|-3-3-3-3-3--|-2-2-2-2-2---|
E|----------------|-------------|------------|-------------|
play it siguro mga 5xs

then:
G|--------------|-----------|------------|-------------|
D|--------------|-----------|------------|-------------|
A|---7-7-7-7-7--|-5-5-5-5-5-|-3-3-3-3-3--|-2-1---3-4---|
E|--------------|-----------|------------|-------------|

instruction:
play intro,verse,refrain,chorus,intro,refrain,chorus,bridge,intro,refrain,chorus,bridge,
tapos the end na basta kayo nalang bahala
anyway this is my first time kaya sorry kung maraming mali
just e-mail me kung may mali nga...slash_kirk15@yahoo.com
Comments