Orange And Lemons - Beginning Of Something Chords & Tabs

 

Beginning Of Something Chords & Tabs

Orange And Lemons Chords & Tabs

Version: 1 Type: Bass Tab

Beginning Of Something Bass Tab

A Beginning of Something Wonderful
Orange And Lemons
Bass Tabs
Tabbed By: tbspao13@yahoo.com


Intro

G|--------------------------------------|
D|----------------8-7-6-----6-4---------|
A|------9-9---6-6-------4-4-------------|
E|-7-7------7-------------------0-4-5-6-|

1st - bass only
2nd - w/ clap
3rd-6th - all instruments

(6th)
G|--------------------------------------|
D|----------------8-7-6---------5-4-----|
A|------9-9---6-6-------4-4-4-4---------|
E|-7-7------7---------------------------|


Verse (4x)

G|--------------------------------------|
D|----------------8-7-6-----6-4---------|
A|------9-9---6-6-------4-4-------------|
E|-7-7------7-------------------0-4-5-6-|

Pre-Chorus (0:50)

G|---------------------------------------|
D|---------------------------------------|
A|---------------2-----2-4-2-2-2---------|
E|-4-4-4-4-0-2-4---2-4-----------4-4-4-4-|
[ Tab from: http://www.guitartabs.cc/tabs/o/orange_and_lemons/beginning_of_something_btab.html ]
G|---------------------------------------|
D|---------------------------------------|
A|---------6-6-6-6-7-7-7-7-9-9-9---7-6---|
E|-0-0-0-0-----------------------7-----7-|

Chorus

G|--------------------------------------|
D|----------------8-7-6-----6-4---------|
A|------9-9---6-6-------4-4-------------|
E|-7-7------7-------------------0-4-5-6-| X5


(6th)
G|--------------------------------------|
D|----------------8-7-6---------5-4-----|
A|------9-9---6-6-------4-4-4-4---------|
E|-7-7------7---------------------------|

Instrumental

G|-----------------------------------------|
D|-------------------------4-4-4-4---------|
A|-----------------5-5-5-5---------7-7-7-7-|
E|-5-5-5-5-4-4-4-4-------------------------|

G|-----------------------------------------|
D|-------------------------4-4-4-4-4-4-4-4-|
A|-----------------5-5-5-5-----------------|
E|-5-5-5-5-4-4-4-4-------------------------|

G|-----------------------------------------|
D|-4-4-4-----------------------------------|
A|-------7-(Let Ring)----------------------|
E|-----------------------------------------|


Paki email nalang po ako kapag may mali.... 90% yan yung kanta! ^_^