Orange And Lemon - Pinoy Ako Chords & Tabs

 

Pinoy Ako Chords & Tabs

Orange And Lemon Chords & Tabs

Version: 1 Type: Tab 1 rating
1 star 2 stars 3 stars 4 stars 5 stars
comments

Pinoy Ako Tab

   
hi im rex try nyo lang to....

Pinoy ako

Intro:
 guitar 1                                                        (repeat 2x)
e-------10------10------10------10------10------10------10----|----------------
b----10---10--10--10--10--10--10--10--10--10--10--10--10--10--|----------------
g--12-------12------12------12------11------11------11------11|----------------
D-------------------------------------------------------------|----------------
A-------------------------------------------------------------|----------------
E-------------------------------------------------------------|----------------
guitar 2                                           guitar 1
e--15-------------------------------13h15--15--|---------------------------
b----------------------------------------------|----7---8--8/10------------
g----------------------------------------------|----9---9--9/11------------
D----------------------------------------------|---------------------------
A----------------------------------------------|---------------------------
E----------------------------------------------|---------------------------
verse 1
lahat tayo'y maroong. . . . .   just use (D F#m/A Bm/E Gm) (guitar 2)
this part is the solo/addlib
guitar 1         guitar 2
e--------------|----------------------------14--15-15-17-18-17-15\14-------
b--------------|--12h14-14-15-17-15-14-15-12----12-------------------------
g----7-9-9/11--|-----------------------------------------------------------
D---7----------|-----------------------------------------------------------
A--------------|-----------------------------------------------------------
E--------------|-----------------------------------------------------------
verse 2 same as verse 1
[ Tab from: http://www.guitartabs.cc/tabs/o/orange_and_lemon/pinoy_ako_tab.html ]
ipakita mo ang tunay at...........D F#m/A Bm/E Gm
then the part of solo
guitar 1                 guitar 2
e---------------------|--(7)-*----9--7------------------10-12-12/14---------
b------------------7--|--(8)-*----8-----8h10-10/12-10\8---------------------
g---------------5-----|--(9)-*----9-----------------------------------------
D-------5-7-7/9-------|-----------------------------------------------------
A--5/7-9--------------|-----------------------------------------------------
E---------------------|-----------------------------------------------------
chorus:1
rhythm by the guitar 2,then mixed with guitar 1
guitar 1                                                  (repeat 4x) 
e---------------------------------7------------10-------|-------------------------------
b-------10-----------10---------8---8-------11----11----|-------------------------------
g--11-----11------11----11----9-------9--12----------12-|--------------7-9-11-12-9h11-7-
D----12-----12--11--------11----------------------------|-------------------------------
A-------------------------------------------------------|-------------------------------
G-------------------------------------------------------|-------------------------------

chorus 2
guitar 1 struming                    
talagang ganyan ang buhay....    dapat kanang masanay....
e-0-0-0-------------------------------3-3-3-----|
b-2-2-2-------------------------------0-0-0-----|
g-2-2-2-------------------------------0-0-0-----|
E-2-2-2-------------------------------0-0-0-----|
A-0-0-0-------------------------------2-2-2-----|
E-------------------------------------3-3-3-----|

guitar 2 single strumm ( repeat 
e--5----------------------------------3---------
b--5----------------------------------3---------
g--6----------------------------------4---------
E--7----------------------------------5---------
A-----------------------------------------------
E-----------------------------------------------
back to chorus 1
chorus:1
rhythm by the guitar 2,then mixed with guitar 1
guitar 1                                                  (repeat 4x) 
e---------------------------------7------------10-------|-------------------------------
b-------10-----------10---------8---8-------11----11----|-------------------------------
g--11-----11------11----11----9-------9--12----------12-|--------------7-9-11-12-9h11-7-
D----12-----12--11--------11----------------------------|-------------------------------
A-------------------------------------------------------|-------------------------------
G-------------------------------------------------------|-------------------------------

then outro
guitar 1                                                        
e-------10------10------10------10------10------10------10----|
b----10---10--10--10--10--10--10--10--10--10--10--10--10--10--|
g--12-------12------12------12------11------11------11------11|
D-------------------------------------------------------------|
A-------------------------------------------------------------|
E-------------------------------------------------------------|

thats all thank u... :)


 


Comments