Orange And Lemon - Pinoy Ako Chords & Tabs

 

Pinoy Ako Chords & Tabs

Orange And Lemon Chords & Tabs

Version: 1 Type: Bass Tab 1 rating
1 star 2 stars 3 stars 4 stars 5 stars
comments

Pinoy Ako Bass Tab

artist:orange and lemon
song:pinoy ako
tab: bass tab
invite me friendster rex_jash23@yahoo

g---------------|---------------------------------------
d----5-4-5-4-2--|--7-7-7--------------------------------
a---5---5-----5-|----------4-4-4---2-2-2--5-5-0-5-------
e---------------|--------2-------0-------3--------------

verse 1
lahat tyo'y maroong...
g--------------------------------------------
d--------------------------------------------
a--5-57------------------5-------------------
e------2-234--0-123---356--------------------

g--------------------------------------------
d--------------------------------------------
a--5-57------------------5-------------------
e------2-234--0-123---356--------------------

chorus 1
pinoy ikaw ay pinoy.....
g--------------------------------------------
d--------------------------------------------
a--5-55-5------------------------------------
e---------2-22-2-0-00-0--3-33-3--------------

g--------------------------------------------
d--------------------------------------------
a--5-55-5------------------------------------
e---------2-22-2-0-00-0--3-33-3--------------
[ Tab from: http://www.guitartabs.cc/tabs/o/orange_and_lemon/pinoy_ako_btab.html ]
verse 2
ipakita mo ang tunay......
g--------------------------------------------
d--------------------------------------------
a--5-57------------------5-------------------
e------2-234--0-123---356--------------------

g--------------------------------------------
d--------------------------------------------
a--5-57------------------5-------------------
e------2-234--0-123---356--------------------


chorus 2
talagang ganyan ang buhay......
g-----------------------------------------------------------
d-----------------------------------------------------------
a-----------------------------------------------------------
e-----5-55-5-5--5-55-5-5---3-33-3-3-3-33-3-3----------------

g-----------------------------------------------------------
d-----------------------------------------------------------
a-----------------------------------------------------------
e-----5-55-5-5--5-55-5-5---3-33-3-3-3-33-3-3----------------

pinoy ikaw ay pinoy.....
g--------------------------------------------
d--------------------------------------------
a--5-55-5------------------------------------
e---------2-22-2-0-00-0--3-33-3--------------

g--------------------------------------------
d--------------------------------------------
a--5-55-5------------------------------------
e---------2-22-2-0-00-0--3-33-3--------------


then back to intro ...thats all









Comments