Opressor - In Exile Chords & Tabs

 

In Exile Chords & Tabs

Opressor Chords & Tabs

Version: 1 Type: Tab 0 ratings
1 star 2 stars 3 stars 4 stars 5 stars
comments

In Exile Tab

   
IN EXILE - Oppressor - Agony
Version 1.0 - October 2001
Transcribed by Lalith Vipulananthan (singularitymetaltab@hotmail.com)

Tuning (Low to High) - C F Bb Eb G C


A1	 	      Play twice
|------------------------------|
|------------------------------|
|-2-2---2-2-----2-2---2-2-2----|
|-0-0---0-0-----0-0---0-0-0----|
  . .   . .     . .   . . .

A2						      Guitar 1
|------------------------------------------------------------|
|------------------------------------------------------------|
|-2-2---2-2-----2-2---2-2-2-----2-2---2-2-----2-2---2-2-2----|
|-0-0---0-0-----0-0---0-0-0-----0-0---0-0-----0-0---0-0-0----|
| . .   . .     . .   . . .     . .   . .     . .   . . .
|						            Guitar 2
|------------------------------------------------------------------|
|-harmonic-trem picking bit that I can't do with a B-tuned guitar!-|
|------------------------------------------------------------------|
|------------------------------------------------------------------|


Repeat A2


B1   [1-3,5-7]           [4]                [8]
|-----------------|-----------------|-------------------|
|-----------------|-----------------|-------------------|
|---3-5---5-6-5-3-|---3-5---6-6-6-3-|---3-5---6-6-Ah----|
|-001-3-0-3-4-3-1-|-001-3-0-4-4-4-1-|-001-3-0-4-4-3-----|
  ... . . . . . .   ... . .           ... . .  


Repeat B1


B2    [1-3]               [4] 
|-----------------|-----------------|
|-----------------|-----------------|
|-2-3-5-3-5-6-5-3-|-2-3-5-3-5/6-Ah--|
|-0-1-3-1-3-4-3-1-|-0-1-3-1-3/4-4---|
    

Repeat B2, A1 

[ Tab from: http://www.guitartabs.cc/tabs/o/opressor/in_exile_tab.html ]
C           [1,3]			        [2]                                [4]
|---------------------------------|-----------------3---7---6------|---------4\------3/7-6---3-------|
|---------------------------------|-----------------3---7---6------|---------4\------3/7-6---3-------|
|---------4\----------------------|---------4\------5---9---8------|---------4\------5/9-8---5-------|
|---------4\----------------------|---------4\------3---7---6------|---------4\------3/7-6---3-------|
|---------2\-----------2-3-6-5-3~-|---------2\------3---7---6------|---------2\------3/7-6---3---6---|
|-00000000----00000000-0-1-4-3-1~-|-00000000----0000---------------|-00000000----0000----------------|
  ........    ........ . . . .      ........    ....                 ........    ....

Repeat C 


D                                        Play 4 times
|---------------------------------------------------|
|---------------------------------------------------|
|-2-2-3/6-6---2-2-3/6-6---2-2-3/6-6---5---3---2-3-5-|
|-0-0-1/4-4---0-0-1/4-4---0-0-1/4-4---3---1---0-1-3-|


Repeat A2 x 2, B1 x 4, B2 x 2, C x 2, D x 4 


E		       Play 4 times
|---------------------------------|
|---------------------------------|
|-2-222-2---2-2-2---3/6-----3/5---|
|-0-000-0---0-0-0-0-1/4---0-1/3---|
  . ... .   . . . .       .


Repeat E x 8 (with E' x 2 ie E x 4 = E' x 1)

E'							
|--------------------------------------------------------------------|
|--------------------------------------------------------------------|
|-7~~---7/8---7-7h8p7--5---7-3---5-2---2---2h3p2---------------------|
|--------------------------------------------------5---3/5--3--2-0---|


Repeat A1 x 2, A2 x 2, B1 x 2, B2 x 2, C x 2 (under solo), D x 4
Repeat A2 until fade out

------------------------
The End!
Comments