Opm - Heaven Is A Half Pipe Chords & Tabs

 

Heaven Is A Half Pipe Chords & Tabs

Opm Chords & Tabs

Version: 1 Type: Tab 0 ratings
1 star 2 stars 3 stars 4 stars 5 stars
comments

Heaven Is A Half Pipe Tab

   
hello, i was muking around on the old accoustic the other day and
check out what come.
[ Tab from: http://www.guitartabs.cc/tabs/o/opm/heaven_is_a_half_pipe_tab.html ]
heres the intro it can be played bout 50 diffrent ways on guitar,
heres the best key i found,
 
very simple:
  F                        Bb
e)-----1-----1--------------1-----1------------------------------
B)-----1-----1--------------3-----3------------------------------
G)-----2-----2--------------3-----3------------------------------
D)--3-----3--------------3-----3---------------------------------
A)---------------------------------------------------------------
E)---------------------------------------------------------------
repeat for ages when needed

now the rest of the song is only two more chords 
     D#                      Db
e)---6--6--6--6--6-----------4--4--4--4--4-----------------------
B)---8--8--8--8--8-----------6--6--6--6--6-----------------------
G)---8--8--8--8--8-----------6--6--6--6--6-----------------------
D)---8--8--8--8--8-----------6--6--6--6--6-----------------------
A)---6--6--6--6--6-----------4--4--4--4--4-----------------------
E)---6--6--6--6--6-----------4--4--4--4--4-----------------------

play these with loads of distortion 

enjoy :)
Comments