Opm - Brighter Side Chords & Tabs

 

Brighter Side Chords & Tabs

Opm Chords & Tabs

Version: 2 Type: Tab 0 ratings
1 star 2 stars 3 stars 4 stars 5 stars
comments

Brighter Side Tab

   
A R T I S T : OPM
TITLE: BRIGHTER SIDE
ALBUM: MENACE TO SOBRIETY
TABBED BY : ANDRÉS (trigohernandez@hotmail.com)

This is a very easy song , but you do have to hear the song well , to catch up the rhythm. This is my first tab, keep that in mind .
For any mistakes .
Questions , e-mail me.

Intro :  00 : 5

Guitar 1 

e--------------------------------------------------------------
b-------------------------------------------------------------
g-------------------------------------------------------------    x 2
d---------------6---------------------------------------------
a---4---4--7------------------7-7-7-7-6-4-----------------
e-------------------5-5-5-4 ------------------7-7-7-------

Guitar 2

Chords  :   C#m	            A           e 2sus          b 

          E-----4-----     ---5---   ----X--       ---7---
          B-----5-----    ----5---   ----X--       ---7---
          G---- 6-----    ----6---   ----9---      ---8---
          D-----6-----     ---7---   ----9---      ---9---
          A-----4-----     ---7---   ----7---      ---9---
          E-----4----      ---5---   ----7---      ---7---
 
 VERSE :   INTRO GUITAR 2







PRE CHORUS :
[ Tab from: http://www.guitartabs.cc/tabs/o/opm/brighter_side_tab_ver_2.html ]
                G#                G
           ---X---         ---X---
           ---X---         ---X---
           ---X---         ---5--
           ---6---          ---6--
           ---6---          ---3--
           ---4---          ---4---

CHORUS: INTRO
B: bending  S:Slide
SOLO: 

E--------------------------------------------------------------------------------------------
B----------------------7---8b9---9---7-----------14---14-9---S14---S14--14-16-17-
G---6---9-6-9-6-9----------------------9---8--------------------------------------------
D------------------------------------------------------------------------------------------
A------------------------------------------------------------------------------------------
E-------------------------------------------------------------------------------------------

E--------------------------------------------------------------------------------------------
B---16-14-16-14-------------------------------------------------------------------------
G-------------------16---13----------------------------------------------------------------
D-----------------------------16--14---13--11-------------------------------------------
A-------------------------------------------------------------------------------------------
E--------------------------------------------------------------------------------------------
VERSE
PRE CHORUS
CHORUS
PRE CHORUS

HIP HOP PORTION.   G#
CHORUS.
The last solo  is very easy , you can do it yourselves.

Enjoy.... this is a great song.....
This is all my own work


Comments