Opium - Backward Glance Chords & Tabs

 

Backward Glance Chords & Tabs

Opium Chords & Tabs

Version: 1 Type: Tab 0 ratings
1 star 2 stars 3 stars 4 stars 5 stars
comments

Backward Glance Tab

   
Artist: Opium
Song Title: Backwards Glance

Okay, this is the song of opium's 'wants to dance' album. the low E string is
in drop D, if u dont know how to do this, then play the 4th string (d) and detune
until it sounds an octive lower. i havent put the strumming pattern cos i dont
know how to but its easy to work out. enjoy people

Intro

e---------------------------------
b---------------------------------
g---------------------------------
d-0000000000000---444444444444---5
a-0000000000000---444444444444---5
D-0000000000000---444444444444---5

Verse

e-----------------------------------
b-----------------------------------
g-----------------------------------                 x2
d-0-------------------------4-------                
a-0---(let ring)------------4-------(let ring)
D-0-------------------------4-------


e-------------------------------------------------------------
b-------------------------------------------------------------
g-------------------------------------------------------------
d-00000000000000000000000-(palm mute)---44444444444444444444444
a-00000000000000000000000--------------444444444444444444444444
D-00000000000000000000000--------------444444444444444444444444


Chorus (guitar 1)
[ Tab from: http://www.guitartabs.cc/tabs/o/opium/backward_glance_tab.html ]
e--------------------
b--------------------
g--------------------
d-44444--88888--99999
a-44444--88888--99999
D-44444--88888--99999


(guitar 2) same as above but ends on:

e-------
b-11----    x2
g---11--
d-----11  

bit after chorus

e---------------------------------------
b---------------------------------------
g---------------------------------------
d-888888888888888888--444444444444444444    x2
a-888888888888888888--444444444444444444
D-888888888888888888--444444444444444444

solo (guitar 1)

e-13-13-13-13-13-13-13-13-13-13-13-13-13-13-13-13-
b-------------------------------------------------
g-------------------------------------------------  
d-------------------------------------------------
a-------------------------------------------------
D-------------------------------------------------


guitar 2

e---------------------------------------
b---------------------------------------
g---------------------------------------
d-88888--444--88888--999--88888--333--6-
a-88888--444--88888--999--88888--333--6-
D-88888--444--88888--999--88888--333--6-

solo 2

e-----------------------------------------------
b------2-----6----7---------------------11------
g-----------------------------------------11----
d--------------------------------------------11-
a---4-----8----9--------------------------------
D-4----8-----9----------------------------------


then goes back to chorus
Comments