Opeth - When Chords & Tabs

 

When Chords & Tabs

Opeth Chords & Tabs

Version: 1 Type: Tab 0 ratings
1 star 2 stars 3 stars 4 stars 5 stars
comments

When Tab

                             Opeth - When
                  From the Album My Arms Your Hearse
                      Copyright 1998 Candlelight
                     Version 1.0 - November 2000

Transcribed by: Rick Massie

For Questions, Comments, Newest Version, or Corrections contact
Rick Massie: at atthegates213@hotmail.com

Check Out Death Warp, With More Transcriptions On It:
http://tiger.towson.edu/~dalvis1

..  - palm mute          /  - slide up to
\  - slide down to      ~  - vibrato
h  - hammer on          b  - bend
p  - pull off            Suffixes for bend
                          ph - pinch harmonic
                           f - full bend    h - half bend
*  - see comment           r - release      t - tap bend
X  - percussion mute       ~ - vibrato bend
@  - slight palm mute     () - ghost note, sustained note

Tune Gtr to EADGBE

|---------3~----------------------0------------------|
|-3h5-5---5-----------------8-------8-----0h1--------|
|----------------2---4--5~----5-------5-------2------|
|-------------------------------7-------7-------4-0~-|
|-----------------------0-----------------0-----1-2--|
|-0-------0----0---0---------------------------------|


|-2--------------------------------|
|---3-----------------------5/7\5~-|
|-----0~-----4---5--------4--------|
|--------5/7---7---0--2~-----------|
|--------0-------------------------|
|------------------3--0------------|


|---------------------------------------|----------------------------|
|---------------------------------------|----------------------------|
|-9-------------------------------------|----------------------------|
|-9--9-9---9-9---10-9-7-----------------|-2-------------------7--7---|GTRI
|-7--5-5---5-5----------10-9-7----------|---1------------5h7-0-------|
|----7-7---7-7-----------------10-8-7-7-|------1-0-----0-------------|
|                                       |                            |
|---------------------------------------|----------------------------|
|---------------------------------------|----------------------------|
|---------------------------------------|----------------------------|
|-9--------------9----------------4-4-4-|----------------------------|GTRII
|-7--5-5---5-5---7------7---------6-6-6-|-7----pm...-----5h7--7--7---|
|----7-7---7-7----------8---------------|---0--0-0-----0-----0-------|


|-------------------------------------------------|
|-------------------------------------------------|
|---4---4---4---4---4---4---3-----3-----3-----3---|
|-2---2-------2---2-------5---5-0---0-5---5-0---0-|
|-------------------------------------------------|
|-------------------------------------------------|
|                                                 |
|-------------------------------------------------|
|-------------------------------------------------|
|-------------------------------------------------|
|-------------------------------------------------|
|-------------------------------------------------|
|-0---0-0-0-0-0-0-0-0-0-2-3---3-3-3-3-3-3-3-3-3-3-|


|-------------------------------------------------|
|-------------------------------------------------|
|-------------------------------3-----------3-----|
|-----------------------------5---5-------5---5---|GTRI
|-4-----5-----1-------------5-------5---5-------5-|
|-------------------3-----------------------------|
|                                                 |
|-------------------------------------------------|
|-------------------------------------------------|
|12----6-----7~-----------------------------------|GTRII
|--------------------------8~----------7~---------|
|-10----4-----5-----------------------------------|
|--------------------------6-----------5----------|


clean   2 times
|--------------------------|
|--------------------------|
|-----3------------3-------|
|---5---5--------5---5-----|
|---------5~-----------5~--|
|-3------------3-----------|



both gtrs
|-----------------------------------------------|
|-----------------------------------------------|
|-------------------------6---6-6---x-6---6-6---|GTRI
|-6---6-6---x-6---6-6---x-4---4-4---x-4---4-4---|
|-6---6-6---x-6---6-6---x-4---4-4---x-4---4-4---|
|-4---4-4---x-4---4-4---x-----------------------|
|                                               |
|-----------------------------------------------|
|-----------------------------------------------|
|-------4~----------4~----------4~----------4~--|
|-----6-----------6-----------6-----------6-----|GTRII
|---6-----------6-----------6-----------6-------|
|-4-----------4-----------4-----------4---------|


|--------------------------4-4-4-4-----5-5-5-5---|
|--5---5-5-----5---5-5-----5-5-5-5-----5-5-5-5---|
|x-4---4-4---x-4---4-4---x-6-6-6-6---x-5-5-5-5---|GTRI
|x-2---2-2---x-2---2-2---x-6-6-6-6---x-7-7-7-7---|
|x-2---2-2---x-2---2-2---x-4-4-4-4---x-7-7-7-7---|
|--------------------------------------5-5-5-5---|
|                                                |
|--------------------------4-4-4-4-----5-5-5-5---|
|--------------------------5-5-5-5-----5-5-5-5---|
|--------4~----------4~----6-6-6-6-----5-5-5-5---|
|------6-----------6-------6-6-6-6-----7-7-7-7---|GTRII
|----6-----------6---------4-4-4-4-----7-7-7-7---|
|--4-----------4-----------------------5-5-5-5---|


|-------------------------------------------------------|
|----------------16-16-14-------------------------------|
|----------13-15----------16-15-13----------------------|
|----------------------------------16-13~---13h14p13\11~|
|-11-13-14----------------------------------------------|
|-------------------------------------------------------|


|----------------------------------------------|
|-----9-------9--------------------------------|
|--11-11b13--11b13~--(11)b13-11-9-(11)b13-11-9-|
|----------------------------------------------|
|----------------------------------------------|
|----------------------------------------------|


|----------------------------------------------------------------------|
|----------------------------------------------------------------------|
|----------------------------------------------------------------------|
|-9---9--9--9--9--9--11-13-11-----13---11---6---7----------------------|
|-11--11-11-11-11-11-13-14-13~----14---13---7---9~----11---------------|
|--------------------------------------------------------12-11-9-11-12-|

                                                            sweep
|--------------------------------------------------------19p14----------|
|-------------------------------------------------------------16--------|
|-----------------------------------------------13--------------13------|
|--13-11-13-14-13-11-13-11-13-14-13-11-14-13-14----14-13----------15----|
|-------------------------------------------------------------------16--|
|-----------------------------------------------------------------------|


|--------------------------------------------------------------------------|
|--------------------------------------------------------------------------|
|-----13-------11---------11-13-(13)b14-13-11-13~---13~-----13-13----11-11-|
|-/14------/13---13---/11-----------------------------------14-14----13-13-|
|--------------------------------------------------------------------------|
|--------------------------------------------------------------------------|



|----------------------------------------------|
|----------------------------------------------|
|----9-11b13r11-9----11b13r11-9----9~----------|
|-11--------------11------------11(2)----------|
|---------------------------------(2)----------|
|---------------------------------(0)----------|


|-----------------------|
|-----------------------|
|-------0~----------0~--|
|-----4-----------4-----|
|---3-----------2-------|
|-5-----------0---------|


[ Tab from: http://www.guitartabs.cc/tabs/o/opeth/when_tab.html ]
|---------------------------------------------4---4---4----------------------|
|-----------------------------------------------4----------------------------|
|------0~--------0~---------0~---------0~---6----------------------0---------|
|----4---------4----------4----------4--------------6----------0h1---1-------|
|--3---------3----------2----------2--------------------4~---3---------3-3~--|
|5---------5----------0----------0-------------------------------------------|
|                                                                            |
|----------------------------------------------------------------------------|
|----------------------------------------------------------------------------|
|-------------------------------------------6---8---9---11~------------------|
|10~-----------9------7h9-7h9~-------------------------------12~-------10-10~|
|----------------10----------------------------------------------------------|
|----------------------------------------------------------------------------|


strum this part 2nd time onward

|---------------------------------------------------------------------|
|---------------------------------------------------------------------|
|-5~----------------4-4----------------6---8---9---11----7-------5-5--|
|---------------------------------------------------------------------|GTRI
|-3-----------------2-2----------------4---6---7---9~----5-------3-3~-|
|---------------------------------------------------------------------|
|                                                                     |
|---------------------------------------------------------------------|
|---------------------------------------------------------------------|
|-2------------------------------------6-----------------5------------|GTRII
|-2-----------------2-2----------------6-----------------5------------|
|-0-----------------2-2----------------4-----------------3------------|
|-------------------0-0-----------------------------------------------|


  play 4 times p.m. first 4                this part two times
|-----------------|-------------------------------------------------|-----|
|-----------------|-------------------------------------------------|-----|
|-----------------|-------------------------------------------------|-----|
|-----------------|-2---2-------2---2-------2---2-------2---2-------|-9-7-|gtr2
|-----------------|-2---2-------2---2-------2---2-------2---2-------|-7-9-|gtr1
|-000-000-000-000-|-0---0-0-0-0-0---0-0-0-0-0---0-0-0-0-0---0-0-0-0-|-----|



|--------------------------------------------------------|
|--------------------------------------------------------|
|-----------------------------7---7-7-7-7---7---7-7-7-7--|
|-2---2-2-2-2---2---2-2-2-2---7---7-7-7-7---7---7-7-7-7--|
|-2---2-2-2-2---2---2-2-2-2---5---5-5-5-5---5---5-5-5-5--|
|-0---0-0-0-0---0---0-0-0-0------------------------------|
|                                                        |
|--------------------------------------------------------|
|-3---3-3-3-3---3---3-3-3-3---3---3-3-3-3---3---3-3-3-3--|
|-4---4-4-4-4---4---4-4-4-4------------------------------|
|-5---5-5-5-5---5---5-5-5-5---4---4-4-4-4---4---4-4-4-4--|
|-----------------------------5---5-5-5-5---5---5-5-5-5--|
|--------------------------------------------------------|


|-----------------------------------------------------------|
|-----------------------------------------------------------|
|-----------------------------4---4---4-4-4---4---4-4-4-4---|
|-5---5-5-5-5---5---5-5-5-5---4---4---4-4-4---4---4-4-4-4---|GTRI
|-5---5-5-5-5---5---5-5-5-5---2---2---2-2-2---2---2-2-2-2---|
|-3---3-3-3-3---3---3-3-3-3---------------------------------|
|                                                           |
|-----------------------------------------------------------|
|-----------------------------------------------------------|
|-------2------3--------------------------------------------|GTRII
|-5------------------5~-------4~----------------------------|
|-----------------------------------------------------------|
|-----------------------------------------------------------|


|-------------------------------------|
|-------------------------------------|
|-------------------------------------|
|-3~----3/-5-5-5-5-5-5-12-12-12-12-12-|
|-3-----3/-5-5-5-5-5-5----------------|
|-1-----1/-3-3-3-3-3-3/10-10-10-10-10-|

  strum these chords
|------------------------------------------------------------------|
|-8----------------------------------------------------------------|
|-9----------------7-------------4~-----4-6-4-2~-------------------|
|-9-------------------------------------------2--------------------|
|-7----------------5-------------2------2-4-2-0--------2-2-4~------|
|-0----------------------------------------------------0-0-2~------|
      lead

|----------------------------------------------|
|-8-8-8-8-8-8----------------------------------|
|-9-9-9-9-9-9-9/11-11-11-11-11--------9-11~----|
|-------------------------------12-11----------|
|----------------------------------------------|
|----------------------------------------------|

|-------------------------------------------------|
|-------------------------------------------------|
|---9-11-9h11p9-----------------------------------|
|12-------------12-11--11h12p11------11h12p11h12~-|
|------------------------------12--12-------------|
|--------------------------------14---------------|


|--------------------------------|
|--------------------------------|
|--------------------------------|
|-9~-------5~-------5~-----------|GTRI
|--------------------------------|
|--------------------------------|
|                                |
|--------------------------------|
|--------------------------------|
|-4~------5~---------------------|GTRII
|-4-------5---------2~-----------|
|-2-------3---------2------------|
|-------------------0------------|


|----------0--------------------------------------0~---|
|-----0-------10p8-10~----------------------0-----0----|
|------2/4--/9-----9----------2---4---------0----------|
|---2-----------------------2--/5---5-----2------------|
|-------------------------------------0h2--------------|
|-0-----------------------0-------------------1p0------|


|--------------------------------------------------------------|
|3-----1---1-----3-----7h8-7-----3-----1---1-------3h5-1/3-0---|
|--0-----0---------0---------------0-----0---0-----4h5-2/4-0---|
|----0---------------0---------------0-------------------------|
|----------------------------------------------0---------------|
|3-----1---------3-----0---------3-----1-----------------------|


|-----------------|
|-----------------|
|-------0---0~----|
|-------5---4-----|
|-----------------|
|-0~--------------|


|---------------------------------------------------------------------|
|---------------------------------------------------------------------|
|----------4444------------6666---0-0-0-0-0-0-0-0-0-0-0-0-0-0-0-00-00-|
|-2--2-----5555---4--4-----7777-x-5-5-5-5-2-2-2-2-2-0-0-0-0-0-0-00-00-|GTRI
|-2--2-----7777---4--4-----9999-x-------------------------------------|
|-0--0--00------0-2--2--22--------------------------------------------|
|                                                                     |
|---------------------------------------------------------------------|
|-----------------------------------------5-5555-5-5555-5-5555-5-5555-|
|-----------------2--2-222--2-222-0--0000-5-5555-5-5555-5-5555-5-5555-|GTRII
|-2--2-----55-55-54--4-444--4-444-5--5555-----------------------------|
|-2--2-----77-77-7----------------------------------------------------|
|-0--0--00------------------------------------------------------------|


|------------------------------------------------------|
|-0-00-00-0000-0-00-00-0000-0-00-00--------------------|
|-0-00-00-0000-2-22-22-2222-2-22-22-4-2----------------|GTRI
|-2-22-22-2222-4-44-44-4444-4-44-44--------------------|
|---------------------------------------5~--4----------|
|---------------------------3-33-33-----------5~-------|
|                                                      |
|------------------------------------------------------|
|------------------------------------------------------|
|------------------------------------4-2---------------|GTRII
|-2-22-22-2222-4-44-44-4444--5-55-55-------------------|
|-2-22-22-2222-4-44-44-4444--5-55-55-----5~--4---------|
|-0-00-00-0000-2-22-22-2222--3-33-33-----------5~------|


|------------------------------------------------------|
|-0-00-00-0000-0-00-00-0000-0-00-00--------------------|
|-0-00-00-0000-2-22-22-2222-2-22-22-4-2----------------|gtrI
|-2-22-22-2222-4-44-44-4444-4-44-44--------------------|
|---------------------------------------5~--4----------|
|---------------------------3-33-33-----------5~-------|
|                                                      |
|------------------------------------------------------|
|------------------------------------------------------|
|-11~---9---7--9~-/11--7~------------------------------|GTRII
|------------------------------------5h7-9~------------|
|----------------------------------------------0~------|
|------------------------------------------------------|


End on this
|--------|
|--------|
|--------|
|-----2~-|
|-5-4-0--|
|--------|


Check Out Death Warp, With More Transcriptions On It:
http://tiger.towson.edu/~dalvis1
Comments